Song name
# A B C D E F G H I J K L M N O P Q R S T U V W X Y Z

Thalia Zedek - Since Then chords

Highlighted       Show chord diagrams
chords:

    F#m    E     D     A     Bm
e---2-----0-----2-----0-----2-----|
B---2-----0-----3-----2-----3-----|
G---2-----1-----2-----2-----4-----|
D---4-----2-----0-----2-----4-----|
A---4-----2-----------0-----2-----|
E---2-----0-----------------------|


the F#m is played like this

e-------------------------|
B-------------------------|
G-----2----------2--------|
D-----------4----------4--|  .....
A-------2h4--------2h4----|
E---2----------2----------|


in the very beginning is played like this

e--------------------------------------------------|
B-----2------------------------2-------------------|
G----------------2------------------------2--------|
D-----------4----------4-------------4----------4--|
A-------2h4--------2h4-----------2h4--------2h4----|
E---2----------2-------------2----------2----------|


song:

F#m

             E    
what is that hammering?
       D      E        F#m
well, i know it's not my heart
                              E
is the sound of blows raining down,
    D          E        F#m
or is something building up?


A                   E
  when i look out my window
Bm                          A
  it seems like nothing has changed
                E                   Bm             A
the sky looks no different, but the air is feeling strange
           F#m
isn't it strange?


            E          D         E        F#m
what is that sawing, is something split in half?
                              E       D         E         F#m
the sound of splitting of the side that swallowed the last laugh


A                E        Bm                   A
  and what's that grinding that goes all night long?
                    E     Bm             A
leaves me feeling so tired, every single morning


     E
is it you?
Bm  
you?
A            E
  all night long

is it you?
Bm
you?
A            E
  all night long


F#m


                E
i looked for the moon
     D         E       F#m
but i could not see her face
                            E
all hear features were just blank
      D        E       F#m
like a circle'd been erased


A              E      Bm                  A
  and have you seen me, and do i look the same?
                   E      Bm                      A
is there something missing, something you can't explain?


         E       Bm     A             E
have you seen me lately, do i look the same?
                 Bm     A                      E
have you seen me lately, now that everything's changed?
                       Bm     A                              E
you said you'd seen me lately, you said that something was strange
                      Bm     A               E
i know you've seen me lately, but i can't explain


F#m
Tap to rate this tab
# A B C D E F G H I J K L M N O P Q R S T U V W X Y Z