Song name
# A B C D E F G H I J K L M N O P Q R S T U V W X Y Z

Thao - Bag Of Hammers tab

-------------------------------------------------------------------------------
			    Bag of Hammers - Thao
-------------------------------------------------------------------------------

Tuning: Standard (EADGBe)

                 
e|----------------------------------------------|
B|-----10-10---12-12-12--10-10-10--12-12-12-12--|
G|-----11-11---11-11-11--11-11-11--11-11-11-12--|
D|-----12-12---12-12-12--12-12-12--12-12-12-12--| X2
A|----------------------------------------------|
E|----------------------------------------------|
     - all in a ball in your front yard and I
	       ask to come in cuz I have sold everything still I

e|----------------------------------------------|
B|-----10---------------------------------------|
G|-----12---------------------------------------| X2
D|-----11---------------------------------------|
A|-----12---------------------------------------|
E|----------------------------------------------|
	       Have this bag of hammers, and I wont
	       I have got some manners

Same rhythm as first part, just emphasize hitting the top or bottom notes.

Chorus: Same as verse except during -and as sharp as I sting as sharp as I sing- play a D chord

e|----10----------|
B|----10----------|
G|----11----------|
D|----12----------|
A|----12----------|
E|----10----------|


************************************

| /   slide up
| \   slide down
| h   hammer-on
| p   pull-off
| ~   vibrato
| +   harmonic
| x   Mute note
| b   Bend
| pb  Pre-bend
| br  Bend release
| pbr Pre-bend release
| brb Bend release bend

************************************
http://www.thaomusic.com/
Tap to rate this tab
# A B C D E F G H I J K L M N O P Q R S T U V W X Y Z