Song name
# A B C D E F G H I J K L M N O P Q R S T U V W X Y Z

Thastrom - Kort Biografi Med Litet Testamente chords

Highlighted       Show chord diagrams
Artist: Joakim Thåström
Song: Kort BIOGRAFI med litet testamente
Album: Kärlek är för dom

Intro: F#, G#m

F#                        G#m                  
Jag svek en vän i Mexiko City för längesen
                                       F#
jag vet inte varför jag aldrig sagt förlåt
                                    G#m
Jag har suttit häktad på Skara polisstation
                                 F#
sen dess har jag hållit mig därifrån

                              G#m    
Jag sjöng Den blomstertid nu kommer med dom andra
                            F#
till fröken Bergs tramporgeltoner
                              G#m
Jag stod i klassrummet med vattenkammat hår och
                            F#
försökte komma ihåg alla orden

                                     G#m
Och ni vet jag gråter aldrig när jag går på begravning
                              F#
men när jag ser en på TV så bölar jag som ett barn
                            
Jag har glömt min första kyss
       G#m                                                    F#
men jag minns klart o tydligt när jag fick Rolle Stoltz autograf

(F#, G#m) 

e|---------------------------------------------------------------------------|
B|--11--------------------11----------11--------------------11---------------|
G|---------------------------------------------------------------------------|
D|------11--11h13--13p11------------------11--11h13--13p11-------------------|
A|---------------------------------------------------------------------------|
E|---------------------------------------------------------------------------|


This is played by an electric guitar repeatadly during the verses, from verse 4 and forth:
    
e|---------------------------------------------------------------------------|
B|---------------------------------------------------------------------------|
G|---------------------------------------------------------------------------|
D|-----4-----4----------4-----4----------------------------------------------|
A|--6-----6-----6----4-----4-----4-------------------------------------------|
E|---------------------------------------------------------------------------|


F#                            G#m
Jag såg The Clash på stora hotellet i Örebro
                              F#
Sen blev det aldrig bättre än så
                            G#m 
Jag har blivit mordhotad på båt på väg till Marocko
                           F#
Blivit förälskad på ett hotell i Alingsås

                                 G#m
Men nu för tiden lever jag ett stilla liv
                                 F#
Jag ser dagarna komma och sen springer dom förbi
                     G#m
Och jag tror det är sant som dom säger i Sahara
                         F#
varje sandkorn har ett nummer

                         G#m
Jag har mina rötter i Flädie by utanför Lund
                                         F#
Det visste jag inte ens själv om för ett år sen
                                        G#m
Jag tror jag minns var jag var när dom landade på månen
                        F#
Jag läste Buster & Fantomen

                                 G#m                            
Jag har lämnat landet så många gånger

Jag tappat räkningen för längesen
                            F#
Sanningen är den att jag är typisk svensk
                                               G#m
Och jag vet att jag är skyldig till att under många herrans år
                            F#m
försökt slippa va med mig själv

(F#, G#m)

e|---------------------------------------------------------------------------|
B|--11--------------------11----------11--------------------11---------------|
G|---------------------------------------------------------------------------|
D|------11--11h13--13p11------------------11--11h13--13p11-------------------|
A|---------------------------------------------------------------------------|
E|---------------------------------------------------------------------------|


F#         G#m
Snälla ni, sen när det är dags 
                        F#
när mitt nummer kommer upp
      G#m               
Sen, sen, sen när det är dags
                        F#
när mitt nummer kommer upp

                        G#m
Inte halvvägs ut till Farsta 
                 F#
Inte bland alla tallarna därute
                        G#m
inte halvvägs ut till Farsta
                        F#
inte halvvägs ut till Farsta

(F#, G#m)
e|---------------------------------------------------------------------------|
B|--11--------------------11----------11--------------------11---------------|
G|---------------------------------------------------------------------------|
D|------11--11h13--13p11------------------11--11h13--13p11-------------------|
A|---------------------------------------------------------------------------|
E|---------------------------------------------------------------------------|

Outro: F#, G#m
Tap to rate this tab
# A B C D E F G H I J K L M N O P Q R S T U V W X Y Z