Song name
# A B C D E F G H I J K L M N O P Q R S T U V W X Y Z

That Handsome Devil - Elephant Bones tab

Gtr I (E A D G B E) - 'Untitled'

  Q=84
 4/4
    Gtr I
     TP
  H  H             H +E  S S S S S S      H..  S S    H.   Q
|-----------||-------------------------||-----------|-----------|
|-----------||o----1-(1)--------------o||-1---------|-7---------|
|-----------||-----1-(1)---------------||-1----5-6--|-5----5----|
|-----------||-----1-(1)-1-2-4-2-1-2---||-1---------|-6---------|
|---11\-----||o-----------------------o||-----------|-----------|
|-----------||-------------------------||-----------|-----------|


                                                        <
  H..       S S   H    Q  Q    H..       S S   H    E.  S S S S S
|---------------|------------|---------------|--------------------|-|
|-6-------------|-6----------|-7-------------|-7--------7-7-7-7---|-|
|-4---------4-5-|-4----4--2--|-5---------5-6-|-5----------5-5-5---|-|
|-5-------------|-5----------|-6-------------|-6------------6-6---|-|
|---------------|------------|---------------|--------------------|-|
|---------------|------------|---------------|--------------------|-|


  E. S S E E S S S S S E   E. S S E Q   Q  S
|------------------------|-------------------|
|------------------------|-------------------|
|------------------------|-------------------|
|------------------------|-------------------|
|--------2-4-2-4-5-4-2---|--------2-4\-------|
|-4--4-4---------------4-|-4--4-4------------|


  E. S S E E S S S S S E   E. S S E Q   Q
|------------------------|-------------------|
|------------------------|-------------------|
|------------------------|-------------------|
|------------------------|-------------------|
|--------2-4-2-4-5-4-2---|--------2-4\-------|
|-4--4-4---------------4-|-4--4-4------------|


  E. S S E E S S S S S E      E. S S E Q   Q  S
|---------------------------|-------------------|
|----------5-4-5-7-5-4-4pb5r|========4-5\-------|
|-1--1-1-4------------------|-1--1-1------------|
|---------------------------|-------------------|
|--------2-4-2-4-5-4-2------|--------2-4\-------|
|-4--4-4---------------4----|-4--4-4------------|


                                        TP
  E. S S E E S S S S S E      E. S S E  H
|---------------------------|-----------------|
|----------5-4-5-7-5-4-4pb5r|========4--------|
|-1--1-1-4------------------|-1--1-1----------|
|---------------------------|-----------------|
|--------2-4-2-4-5-4-2------|--------2-11\----|
|-4--4-4---------------4----|-4--4-4----------|


  S S S  S S S S S S S S S S S S S
|------------------------------------|
|------------------------------------|
|----------------------4---4-6-4-6b8-|
|--------------4---4-6---6-----------|
|----------4-6---6-------------------|
|---2-4/-7---------------------------|


  +S    S S S S S S S     T T S S S S S S S
|---------4----------------------------------|
|-------4---7p4------------------------------|
|-(6)b8---------6-4-6b7.5r6-4---4-4-4---4-4--|
|-----------------------------6-------6------|
|--------------------------------------------|
|--------------------------------------------|


  S   S S S   S S S   S S S   S S S   S S S
|-------4-------4-------4-------4-------4----|
|-----4-------4-------4-------4-------4---7--|
|-6b8-----6b8-----6b8-----6b8-----6b8--------|
|--------------------------------------------|
|--------------------------------------------|
|--------------------------------------------|


                             ~
  S   S T T T T S S  S E S S Q  +S
|-----4------------------------------|
|-7b9---9/7p4h7p4------4-----4--(4)--|
|-----------------6----4---6-4--(4)--|
|--------------------6---6-----------|
|------------------------------------|
|------------------------------------|


  Q..    H        S       +Q..      H        S
|-4------7--------9----|--(9)------11-------------|
|-7b9---10b12----12b14-|-(12)b14---14b16----14b16-|
|----------------------|--------------------------|
|----------------------|--------------------------|
|----------------------|--------------------------|
|----------------------|--------------------------|


   +S      S  S     S  S  S  S  E     S  S     S  S  S  S  S
|---------11-------11----------------11-------11------------------|
|-(14)b16----14b16----14-12----14b16----14b16----14-12----14b16---|
|---------------------------13-------------------------13---------|
|-----------------------------------------------------------------|
|-----------------------------------------------------------------|
|-----------------------------------------------------------------|


                                               ~~
   +S      S  S     S  S  S  S  E  S  S  S  S  E S
|---------11-------11------------------------------|
|-(14)b16----14b16----14-12----12----14-14-14-12---|
|---------------------------13----13---------------|
|--------------------------------------------------|
|--------------------------------------------------|
|--------------------------------------------------|


   S  S  T  T  S  S  S  T  T  S  S  S  T  T  S  S  S  T  T  S
|-14-14-11-------14-14-11-------14-14-11-------14-14-11-------|
|----------14p12----------14p12----------14p12----------14p12-|
|-------------------------------------------------------------|
|-------------------------------------------------------------|
|-------------------------------------------------------------|
|-------------------------------------------------------------|


   S  S  T  T  S  S  S  T  T  S  S  S  T  T  S  S  S  T  T  S
|-16-16-14-------16-16-14-------19-19-16-------21-21-19-------|
|----------16p14----------16p14----------19p16----------21p19-|
|-------------------------------------------------------------|
|-------------------------------------------------------------|
|-------------------------------------------------------------|
|-------------------------------------------------------------|


                                                              ~~~~~
   E.  S  S  E  E  S  S  S  S  S  E    E.  S  S  E  E.  S  S  E  E
|-16--16-19-21-21-19-21-22-21-19-16-|-16--16-19-16-15--15-15-15-15---|
|-----------------------------------|--------------------------------|
|-----------------------------------|--------------------------------|
|-----------------------------------|--------------------------------|
|-----------------------------------|--------------------------------|
|-----------------------------------|--------------------------------|


    H    +E  S S S S S S     H..       S S   H.      Q
||------------------------||---------------|--------------|
||o-1----(1)-------------o||-1-------------|-7------------|
||--1----(1)--------------||-1---------5-6-|-5-------5----|
||--1----(1)-1-2-4-2-1-2--||-1-------------|-6------------|
||o----------------------o||---------------|--------------|
||------------------------||---------------|--------------|


                                                       <
  H..       S S   H    Q  Q    H..       S S   H    E. S S S S
|---------------|------------|---------------|------------------|
|-6-------------|-6----------|-7-------------|-7-------7-7-7-7--|
|-4---------4-5-|-4----4--2--|-5---------5-6-|-5---------5-5-5--|
|-5-------------|-5----------|-6-------------|-6-----------6-6--|
|---------------|------------|---------------|------------------|
|---------------|------------|---------------|------------------|


  E. S S E E S S S S S E   E. S S E Q   Q  S
|------------------------|-------------------|
|------------------------|-------------------|
|------------------------|-------------------|
|------------------------|-------------------|
|--------2-4-2-4-5-4-2---|--------2-4\-------|
|-4--4-4---------------4-|-4--4-4------------|


  E. S S E E S S S S S E   E. S S E Q   Q
|------------------------|-------------------|
|------------------------|-------------------|
|------------------------|-------------------|
|------------------------|-------------------|
|--------2-4-2-4-5-4-2---|--------2-4\-------|
|-4--4-4---------------4-|-4--4-4------------|


  E. S S E E S S S S S E      E. S S E Q   Q  S
|---------------------------|-------------------|
|----------5-4-5-7-5-4-4pb5r|========4-5\-------|
|-1--1-1-4------------------|-1--1-1------------|
|---------------------------|-------------------|
|--------2-4-2-4-5-4-2------|--------2-4\-------|
|-4--4-4---------------4----|-4--4-4------------|


  E. S S E E S S S S S E      E. S S E Q
|---------------------------|----------------|
|----------5-4-5-7-5-4-4pb5r|========4-5\----|
|-1--1-1-4------------------|-1--1-1---------|
|---------------------------|----------------|
|--------2-4-2-4-5-4-2------|--------2-4\----|
|-4--4-4---------------4----|-4--4-4---------|



Duration Legend
---------------
W - whole; H - half; Q - quarter; E - 8th; S - 16th; T - 32nd; X - 64th; a - acciaccatura
+ - note tied to previous; . - note dotted; .. - note double dotted
Uncapitalized letters represent notes that are staccato (1/2 duration)
Irregular groupings are notated above the duration line
Duration letters will always appear directly above the note/fret number it represents the
duration for.  Duration letters with no fret number below them represent rests.  Multi-
bar rests are notated in the form Wxn, where n is the number of bars to rest for.  Low
melody durations appear below the staff

Tablature Legend
----------------
 h   - hammer-on
 p   - pull-off
 b   - bend
 pb  - pre-bend
 r   - bend release (if no number after the r, then release immediately)
 /\  - slide into or out of (from/to "nowhere")
 s   - legato slide
 S   - shift slide
 - natural harmonic
[n]  - artificial harmonic
n(n) - tapped harmonic
 ~   - vibrato
 tr  - trill
 T   - tap
 TP  - trem. picking
 PM  - palm muting
\n/  - tremolo bar dip; n = amount to dip
 \n  - tremolo bar down
 n/  - tremolo bar up
/n\  - tremolo bar inverted dip
 =   - hold bend; also acts as connecting device for hammers/pulls
 <> - volume swell (louder/softer)
 x   - on rhythm slash represents muted slash
 o   - on rhythm slash represents single note slash

Tap to rate this tab
 
# A B C D E F G H I J K L M N O P Q R S T U V W X Y Z