Song name
# A B C D E F G H I J K L M N O P Q R S T U V W X Y Z

That Handsome Devil - Rob The Prez-o-dent tab

-------------------------------------------------------------------------------
             Rob The Prez-o-dent - That Handsome Devil
-------------------------------------------------------------------------------
Tabbed by: Servrocker666
E-mail: Servbot3779@yahoo.com

Guitar I
Tuning: E Standard

Guitar II
Tuning D Standard

Guitar I Intro
PM| . . . . . . . . . . . . . . . . . . . . . . . . . . . . . . . . . . . . . 

e|---------------------------------------------------------------------------| 
B|---------------------------------------------------------------------------| 
G|---------------------------------------------------------------------------| 
D|---------------------------------------------------------------------------|
A|---------------------------------------------------------------------------|
E|---0---0sh3---3sh5---5sh6---6sh7---7ps6---6ps5---5ps3---3ps0---------------|

In the beginning , only play the alone open notein the first repeat

PM| . . . . . . . . . . . . . . . . . . . . . . . . . . . . . . . . . . . . .

e|---------------------------------------------------------------------------| 
B|---------------------------------------------------------------------------| 
G|---------------------------------------------------------------------------|
D|---------------------------------------------------------------------------|
A|---------------------------------------------------------------------------|
E|---1---1sh4---4ps3---3ps2---2ps1-------------------------------------------|

This is the alarm chorus part. 

Guitar II

d|---0---1~~~1---0~~~13---12~~~---------22bwh~-------------------------------| 
A|---0---1~~~1---0~~~13---12~~~---12~----------------------------------------|  
F|---1---2~~~2---1~~~14---13~~~12~---12~-------------------------------------| 
C|---2---3~~~3---2~~~15---14~~~----------------------------------------------|
G|---2---3~~~3---2~~~15---14~~~----------------------------------------------|
D|---0---1~~~1---0~~~13---12~~~----------------------------------------------|

This is the keyboard part on guitar before the chorus. 


************************************

| sh = Slide or Hammer-on
| ps = Pull-off or slide
| ~ = Sustain/tremolo (In this song, I think all sustains are tremolos.)
| bhw = Bend whole step up

************************************
Tap to rate this tab
 
# A B C D E F G H I J K L M N O P Q R S T U V W X Y Z