Song name
# A B C D E F G H I J K L M N O P Q R S T U V W X Y Z

Thats Outrageous - Teenage Scream tab

Band: That's Outrageous!
Song: Teenage Scream
Album: Teenage Scream

Tuning: Drop B

"Intro" (0:06-0:25)
e|-------------------------------------------------------|
B|-------------------------------------------------------|
G|-------------------------------------------------------|
D|-00000000-33333333-1010101010101010-55555555--------0~~|
A|-00000000-33333333-1010101010101010-55555555--(X2)--0~~|
E|-00000000-33333333-1010101010101010-55555555--------0~~|

"Breakdown/Verse" (1:00-1:26)
e|-------------------------------------------------|
B|-------------------------------------------------|
G|-------------------------------------------------|
D|-------------------------------------------------|
A|-0--0-000-000--000--000-000-0--0-000-000--000----|
E|-0--0-000-000--000--000-000-0--0-000-000--000----|
   .  . ... ...  ...  ... ... .  . ... ...  ...

e|------------------------------------------------------------|
B|------------------------------------------------------------|
G|------------------------------------------------------------|
D|-------------------------------------------------------0~~~~|
A|-0--0-000-000--000--000-000-0--0-000-000--000--000-000-0~~~~|
E|-0--0-000-000--000--000-000-0--0-000-000--000--000-000-0~~~~|
   .  . ... ...  ...  ... ... .  . ... ...  ...  ... ...

e|--------------------------------------------------|
B|--------------------------------------------------|
G|--------------------------------------------------|
D|-----------------------------------------0~~~~~~~~|
A|-0~~00~0~~00~000~000~0~~00~0~~00~000~000~0~~~~~~~~|
E|-1~~11~1~~11~111~111~1~~11~1~~11~111~111~0~~~~~~~~|
   .  .. .  .. ... ... .  .. .  .. ... ...

"Chorus" (1:26-1:53)
e|----------------------------------------------------|
B|----------------------------------------------------|
G|----------------------------------------------------|
D|-00000000-33333333-1010101010101010-55555555--------|
A|-00000000-33333333-1010101010101010-55555555--(X4)--|
E|-00000000-33333333-1010101010101010-55555555--------|

"Rapping Break" (1:53-2:24)

"Breakdown" (2:24-2:49)
e|------------------------------------------------|
B|------------------------------------------------|
G|------------------------------------------------|
D|------------------------------------------------|
A|-0~~00~0~~00~000~000~0~~00~0~~00~000~000~-(x4)--|
E|-1~~11~1~~11~111~111~1~~11~1~~11~111~111~-------|
   .  .. .  .. ... ... .  .. .  .. ... ...

e|----------------------------------------------|
B|----------------------------------------------|
G|----------------------------------------------|
D|----------------------------------------------|
A|-0--0-000-000--000--000-000-0--0-000-000------|
E|-0--0-000-000--000--000-000-0--0-000-000------|
   .  . ... ...  ...  ... ... .  . ... ...  

e|-----------------------------------------------------|
B|-----------------------------------------------------|
G|-----------------------------------------------------|
D|-----------------------------------------------------|
A|-0-000-000--000--000-000-0--0-000-000--000--000-000--|
E|-0-000-000--000--000-000-0--0-000-000--000--000-000--|
   . ... ...  ...  ... ... .  . ... ...  ...  ... ...

"Chorus" (2:51-3:20)
e|----------------------------------------------------|
B|----------------------------------------------------|
G|----------------------------------------------------|
D|-00000000-33333333-1010101010101010-55555555--------|
A|-00000000-33333333-1010101010101010-55555555--(X4)--|
E|-00000000-33333333-1010101010101010-55555555--------|

And that's it... Simple, but fun! =)

Here's there Facebook page: http://www.facebook.com/thatsoutrageous
Tap to rate this tab
# A B C D E F G H I J K L M N O P Q R S T U V W X Y Z