Song name
# A B C D E F G H I J K L M N O P Q R S T U V W X Y Z

The 1975 - Sex tab

Standard Tuning

Intro/Verse
Guitar 1
e------------------------|
b-1010101010101010101010-|
g-1111111111111111111111-|
d------------------------|
a------------------------|
e------------------------|

Guitar 2
e-----------------------|
b-777-555-777-555-77-55-|
g-----------------------|  3x
d-----------------------|
a-----------------------|
e-----------------------|

End Fill 1/Chorus
e--------------------9999-10101010~---|
b-5555-7777-10101010------------------|
g-------------------------------------|
d-------------------------------------|
a-------------------------------------|
e-------------------------------------|

Bridge
Guitar 1
e-------|
b--10~--|
g--11~--|
d-(-9)~-|
a---9~--|
e-------|

Can either tremelo pick it the whole time or play note and let it ring
e-----------------------|
b-10~-------------------|
g-------11~---9~--------|
d----------------12~----| 2x
a-----------------------|
e-----------------------|

Guitar 2
e-99999999999999999999999999-|
b----------------------------|
g----------------------------|  repeat as necessary
d----------------------------|
a----------------------------|
e----------------------------|

e-----------------------------------------------------------|
b-101010101010101010101010----------------------------------|
g-------------------------111111111111111111111111----------|
d--------------------------------------------------12121212-|  3x
a-----------------------------------------------------------|
e-----------------------------------------------------------|

Last Verse
Guitar 1
e------------------------|
b-1010101010101010101010-|
g-1111111111111111111111-|
d------------------------|
a------------------------|
e------------------------|

Guitar 2
e-----------------------|
b-777-555-777-555-77-55-|
g-----------------------|  3x
d-----------------------|
a-----------------------|
e-----------------------|

e-17p14-------------------|
b-------14-15-17-14-15-14-|
g-------------------------|  several times
d-------------------------|
a-------------------------|
e-------------------------|
Tap to rate this tab
# A B C D E F G H I J K L M N O P Q R S T U V W X Y Z