Song name
# A B C D E F G H I J K L M N O P Q R S T U V W X Y Z

The 1975 - Sex tab

-----------------------------------------------------------------------------
                                                      Sex - The 1975
-----------------------------------------------------------------------------

Tuning: Half Step Down
Capo at 6th fret


Intro+Verse:

The Rhythm Guitar is simply one chord played throughout the intro and the verses:

e|---------x----------------------------------------------------------------|
B|---------x----------------------------------------------------------------|
G|---------7----------------------------------------------------------------|
D|---------5----------------------------------------------------------------|
A|---------0----------------------------------------------------------------|
E|---------x----------------------------------------------------------------|


The Lead guitar (Capo 6th fret, Half step down) plays this riff in the verses (listen to 
the song for timing)

e|-----2-------5----4-------8---------5-------4-----------------------------|
B|--------------------------------------------------------------------------|
G|--------------------------------------------------------------------------|
D|--------------------------------------------------------------------------|
A|--------------------------------------------------------------------------|
E|--------------------------------------------------------------------------|

Chorus+Break:

Throughout the Chorus and Break the following riff is repeated over and over (listen to 
the song for timing)

e|--------------------------------------------------------------------------|
B|----------------5-5-5-8-8-8-8-8-8-8---------------------------------------|
G|----4-4-4-6-6-6-----------------------------------------------------------|
D|--------------------------------------------------------------------------|
A|--------------------------------------------------------------------------|
E|--------------------------------------------------------------------------|


There is a Rhythm guitar in the chorus but I can't hear it clearly enough to provide an accurate
tableture, so I just play the chord from the verses.
Tap to rate this tab
# A B C D E F G H I J K L M N O P Q R S T U V W X Y Z