Song name
# A B C D E F G H I J K L M N O P Q R S T U V W X Y Z

The 1975 - Chocolate tab

Guitar 1
E|-----------------------------------------------------------------------------------------|
B|-----------------------------------------------------------------------------------------|
G|-----------9--8---------------------8-----------------------8----------------------------|
D|--9--9--9--------11--9--11--11--11-----9--9--9--11--11--11-----9--9--9--11--11--11p9-----|
A|-----------------------------------------------------------------------------------------|
E|-----------------------------------------------------------------------------------------|



E|-----------------------------------------------------------------------------------|
B|-----------------------------------------------------------------------------------|
G|-----------9--8---------------------8----------------------------------------------|
D|--9--9--9--------11--9--11--11--11-----9--11--9--11--11--11--9--9--11--9--11p9--9--|
A|-----------------------------------------------------------------------------------|
E|-----------------------------------------------------------------------------------|



E|--------------------------------------------------------------------------------------|
B|--------------------------------------------------------------------------------------|
G|-----------9--8---------------------8-----------------------8-------------------------|
D|--9--9--9--------11--9--11--11--11-----9--9--9--11--11--11-----9--9--9--11--11--11p9--|
A|--------------------------------------------------------------------------------------|
E|--------------------------------------------------------------------------------------|

E|-----------------------------------------------------------------------|
B|-----------------------------------------------------------------------|
G|-----------9--8---------------------8----------------------------------|
D|--9--9--9--------11--9--11--11--11-----9--11--9--9--11p9--11p9--11--9--|
A|-----------------------------------------------------------------------|
E|-----------------------------------------------------------------------|

Guitar 2
E|----------------------|
B|--------------12--7---|
G|----------------------|
D|--9--9--9--9----------|
A|----------------------|
E|----------------------|

Riff 2
E|--------------9--7------------------------|
B|--------------------------------12--7-----|
G|------------------------------------------| x7
D|--9--9--9--9--------9--9--9--9------------|
A|------------------------------------------|
E|------------------------------------------|

E|---------------------------------|
B|---------------------------------|
G|---------------------------------|
D|--9--11--9--11--9--11--9--11--9--|
A|---------------------------------|
E|---------------------------------|

Chord Progression
Capo 7

Verse
Asus2 x02200
Bsus x24400
C#m7 x46600
E 022100

He sings play it cool, then play the chords once in this order
Asus2, Bsus, C#m7, Bsus

Chorus
E, Asus, c#m7, Asus

Repeat once chords in order played before chorus (Asus2, Bsus, C#m7, Bsus)

Bridge
Asus2, Bsus, C#m7, Bsus


Just play around with the tab at the top, it's easy to pick up when to play what (:

Please comment, correct, thanks.
Tap to rate this tab
# A B C D E F G H I J K L M N O P Q R S T U V W X Y Z