Song name
# A B C D E F G H I J K L M N O P Q R S T U V W X Y Z

The 1975 - Chocolate tab

Artist:  The 1975
Song  :  Chocolate

Awesome song.  Great new band.

There are small variations right before the 1st verse starts
but it's the same idea.

Tuning: Standard EADGBE


Intro

  Main Riff guitar 1 (play w/ Rhythm guitar 2 below) (light palm mute w/ clean tone) 
*can use capo on 9th fret if needed

e|---------------------------------------------------------------------------|
B|---------------------------------------------------------------------------|
G|-------9-------------------------------------------------------------------|
D|--9-11---9-13-9-11-9-9-9-11-11-11-13----9-9-11-11-11-13----9-9-11-11-11-9--|
A|---------------------------------------------------------------------------|
E|---------------------------------------------------------------------------|


e|------------------------------------------------------------------------------|
B|------------------------------------------------------------------------------|
G|-------9----------------------------------------------------------------------|
D|--9-11---9-13-9-11-9-9-9-11-11-11-13---9-11-11-11-11-9---11-11-11-9---9-11-11-|
A|------------------------------------------------------------------------------|
E|------------------------------------------------------------------------------|


e|---------------------------------------------------------------------------|
B|---------------------------------------------------------------------------|
G|-------9-------------------------------------------------------------------|
D|--9-11---9-13-9-11-9-9-9-11-11-11-13----9-9-11-11-11-13----9-9-11-11-11-9--|
A|---------------------------------------------------------------------------|
E|---------------------------------------------------------------------------|


e|------------------------------------------------------------------------------|
B|------------------------------------------------------------------------------|
G|-------9----------------------------------------------------------------------|
D|--9-11---9-13-9-11-9-9-9-11-11-11-13---9-11-11-11-11-9---11-11-11-9---9-11-11-|
A|------------------------------------------------------------------------------|
E|------------------------------------------------------------------------------|



 Rhythm guitar 2 (light palm mute; play at same time throughout intro and verse)

e|---------------------------------------------------------------------------|
B|-------12----------------12----------------12----------------12------------|
G|------------11----------------11----------------11----------------11-------|
D|--9-9-9---9----9-9-9-9-9----9----9-9-9-9-9----9----9-9-9-9-9----9----9-9---|
A|---------------------------------------------------------------------------|
E|---------------------------------------------------------------------------|

    Hey...call it a split 'cause I know that you will....


 Chorus

e|---------------------------------------------------------------------------|
B|--------14---12-----------12----------------14---12-----------12-----------|
G|-------------------------------11----------------------------------11------|
D|--9-9-9----9----9-9-9-9-9----9----9-9-9-9-9----9----9-9-9-9-9----9----9-9--|
A|---------------------------------------------------------------------------|
E|---------------------------------------------------------------------------|

  Hey, we go where nobody knows....



 *There are obviously variations throughout with the guitar parts, but they are based 
around the main riff.

************************************

| /   slide up
| \   slide down
| h   hammer-on
| p   pull-off
| ~   vibrato
| +   harmonic
| x   Mute note
| b   Bend
| pb  Pre-bend
| br  Bend release
| pbr Pre-bend release
| brb Bend release bend

************************************
Tap to rate this tab
# A B C D E F G H I J K L M N O P Q R S T U V W X Y Z