Song name
# A B C D E F G H I J K L M N O P Q R S T U V W X Y Z

The 1975 - Money tab

(/) Slide Up  (\) Slide Down  (h) Hammer On  (p) Pull Off  (b) Bend (r) Release (v) Vibrato

M.O.N.E.Y. - The 1975

Standard Tuning - no capo

This is my first tab, but should be correct.

0:42
E|-----------------|-----------------|
B|-----------------|-----------------|
G|---------12--14--|---------12--14--|
D|--12h14----------|--12h14----------|
A|-----------------|-----------------|
E|-----------------|-----------------|


1:06
E|--------------------------------------------------------------------------------------------------|
B|---------------------------------------------------------------13-12----------------------12------|
G|-14h16-14-----------14-16-14------14-16-14----------14h16--14---------14--14--12--------------14--|
D|----------12h14p12-----------12--------------12-12--------------------------------12--12----------|
A|--------------------------------------------------------------------------------------------------|
E|--------------------------------------------------------------------------------------------------|

E|------------------------------------------------------------------------------|
B|--12--13--12------------------------------------12----------------------------|
G|--------------14--12------------12--14--12----------14------------16--16--14--|
D|----------------------12h14p12--------------12----------12h14p12--------------|
A|------------------------------------------------------------------------------|
E|------------------------------------------------------------------------------|

E|------------------------------------|---------------------|-----------------|--------------|
B|----------------12----------12------|--12b13--12----------|-----------------|--------------|
G|------------14------14----------14--|-------------14--12--|---------12--14--|--14--16--14--|
D|--12h14p12--------------12----------|---------------------|--12h14----------|--------------|
A|------------------------------------|---------------------|-----------------|--------------|
E|------------------------------------|---------------------|-----------------|--------------|

E|------------------|-----------------|
B|--13--12----------|-----------------|
G|----------14--12--|---------12--14--|
D|------------------|--12h14----------|
A|------------------|-----------------|
E|------------------|-----------------|

2:05
E|------------------|-----------------|
B|------------------|-----------------|
G|--14--14--12------|---------12--14--|
D|--------------12--|--12h14----------|
A|------------------|-----------------|
E|------------------|-----------------|

2:13
E|----------------------------------------------------------------------|
B|----------------------------------------------------------------------|
G|--16--14-------------14h16--14-------------14--14--16--14-------------|
D|----------12h14--12-------------12h14--12------------------12h14--12--|
A|----------------------------------------------------------------------|
E|----------------------------------------------------------------------|

E|-----------------------------------------------------|---------------------|-----------------|
B|----------12--13--12---------------------------------|--12b13--12----------|-----------------|
G|--16--14--------------14--12-------------14--16--14--|-------------14--12--|---------12--14--|
D|------------------------------12h14--12--------------|---------------------|--12h14----------|
A|-----------------------------------------------------|---------------------|-----------------|
E|-----------------------------------------------------|---------------------|-----------------|
Tap to rate this tab
# A B C D E F G H I J K L M N O P Q R S T U V W X Y Z