Song name
# A B C D E F G H I J K L M N O P Q R S T U V W X Y Z

The 241ers - Little Town Of Bethlehem tab

This is a kind of unknown band and song but anyways, here's how to play the intro. You 
can hear it on spotify and their official myspace page.

The chords used are C, Am, F and G




e|----0-----0-----0-------|
B|----1-----1-----1-------|
G|----0-----0-----0-------|
D|-------2----------------|
A|-3-----------3-----3--2-|
E|------------------------|


e|----0-----0-----0-------|
B|----1-----1-----1-------|
G|----2-----2-----2-------|
D|-------2-----------0--2-|
A|-0-----------0----------|
E|------------------------|


e|---1-----1-----0-----0--|
B|---1-----1-----1-----1--|
G|---2-----2-----0-----0--|
D|------------------2-----|
A|------3-----3-----------|
E|-1----------------------|


e|----3----3-3-3-3--------|
B|----3----3-3-3-3--------|
G|----0----0-0-0-0--------|
D|---------0-0-0-0--------|
A|---------2-2-2-2--------|
E|--3------3-3-3-3--------|

repeat
Tap to rate this tab
# A B C D E F G H I J K L M N O P Q R S T U V W X Y Z