Song name
# A B C D E F G H I J K L M N O P Q R S T U V W X Y Z

The 88 - At Least It Was Here tab

-------------------------------------------------------------------------------
			    Community Theme Song - The 88
-------------------------------------------------------------------------------
Tabbed by: Woodman1921
Email: awroxon@yahoo.com

Tuning: Standard

It's my first tab so please, be gentle...

This is just a little lick I figured out while watching the
opening credits to NBC's new show Community.
The song is by The 88 and is called "At Least It Was Here."

Play This Mangy Lick Twice:

e|---------------------------------------------------------------------------|
B|---------------------------------------------------------------------------|
G|---------------------------------------------------------------------------|
D|---------------------------------------------------------------------------|
A|-000-7-000-9-000-10--10-12-10-9-7------------------------------------------|
E|---------------------------------------------------------------------------|

 Then the chorus:

e|--------------------------------------------------------------------------------|
B|--------------------------------------------------------------------------------|
G|--------------------------------------------------------------------------------|
D|------7-------------------------7-----------------------------------------------|
A|--9-----9-7-9-7-----/7------9----9-7-9-7----------------------------------------|
E|------------------9-7-----------------------9-7-/5---7-/5-----------------------|

And boom goes the dynamite!

Tons of fun if you like to watch TV with your guitar in hand.

| /  slide up
| \  slide down
| h  hammer-on
| p  pull-off
| ~  vibrato
| +  harmonic
| x  Mute note
===============================================================================
Tap to rate this tab
# A B C D E F G H I J K L M N O P Q R S T U V W X Y Z