Song name
# A B C D E F G H I J K L M N O P Q R S T U V W X Y Z

The 88 - At Least It Was Here tab

At Least it was Here
The 88

Pretty simple song, but it sounds really awesome. I'm pretty sure the 88 only has the one
guitarist, so this works fine with one, but it sounds equally good with two.

Intro Part 1 :

|--0---------------2-----------------3-----------------2------------------|
|-------------------------------------------------------------------------|
|-------------------------------------------------------------------------|
|-------------------------------------------------------------------------|
|--0---0---0---0-----0---0---0---0-----0---0---0---0-----0---0---0---0----|
|-------------------------------------------------------------------------|

That part is only heard once in the intro but you use two guitars you can continue it 
until the chorus

Intro Part 2:

   A              A6               A7             A6

|--0---------------2---------------3---------------2--------------|
|--2---------------2---------------2---------------2--------------|
|--2---------------2---------------2---------------2--------------|
|--2---2---2---2---2---2---2---2---2---2---2---2---2---2---2---2--| X2
|--0---0---0---0---0---0---0---0---0---0---0---0---0---0---0---0--|
|-----------------------------------------------------------------|

Chorus:

    D5   C#/D   E    E7   D5   C#/D    A

|--------------------------------------5--------|
|---------------9----9-----------------5--------|
|---7-----7-----9----7-----7-----7-----6--------|
|---7-----7-----9----9-----7-----7-----7--------|
|---5-----4-----7----7-----5-----4-----7--------|
|--------------------------------------5--------|


Verse x2 In the verse the keyboard carries most of the rhythm, with the guitar only 
really strumming
         each chord once, but you can play the chords in short stabs like the keyboard 
to fill out the sound.



Chorus x1

After the second chorus he plays this little thing:

|-----------------------------|
|---/12h14---14---12h14---14--|
|---/12h14---14---12h14---14--|
|---/12h14---14---12h14---14--|
|-----------------------------|
|-----------------------------|


Bridge:

    G     D     A

|---3-----3-----0-----|
|---0-----2-----2-----|
|---0-----3-----2-----| x3
|---0-----0-----2-----|
|---2-----------0-----|
|---3-----------------|

on the fourth time around:

    G     D     E

|---3-----3-----0-----|
|---0-----2-----0-----|
|---0-----3-----1-----|
|---0-----0-----2-----|
|---2-----------2-----|
|---3-----------0-----|



Then back intro Intro Part 1 (play it at least twice, depending on wether you play the 
lead or not)

There's a bit of lead ofter the second time through that goes:

|------------------------5-----------------------|
|--------------------------7b---5----------------|
|------------------------------------------------|
|-----------------------------------7--------7v--|
|---4--5--7--9-----------------------------------|
|------------------------------------------------|

Then it's just Chorus x2
           and Verse x2

There you have it, donde esta la biblioteca, and Six Seasons and a Movie!
Tap to rate this tab
# A B C D E F G H I J K L M N O P Q R S T U V W X Y Z