Song name
# A B C D E F G H I J K L M N O P Q R S T U V W X Y Z

The 88 - All Cause Of You tab

-------------------------------------------------------------------------------
			     All Cause of You - The 88
-------------------------------------------------------------------------------
Tabbed by: xx_mclovin_xx
Email:

Tuning:eadgbe

The chords were correct but there was no tab for the intro...
E|-------------------------------------------------------------------|
B|-------------------------------------------------------------------|
G|-------------------------------------------------------------------|
D|---------------------------------0-0-0-0-0-0-0-0-0-0-0-0-0-0-0-0-0-|
A|-0-0-0-0-0-0-0-0-0-0-0-0-0-0-2-4-----------------------------------|
E|-------------------------------------------------------------------|
   . . . . . . . . . . . . . . . . . . . . . . . . . . . . . . . . . 
E|-------------------------------------------------------------------|
B|-------------------------------------------------------------------|
G|-------------------------------------------------------------------|
D|-4-4-4-4-4-4-4-4-3-3-3-3-3-3-3-3---------------5h7-5h6~------------|
A|---------------------------------0-0-0-0-0-0-0---------------------|
E|-------------------------------------------------------------------|
   . . . . . . . . . . . . . . . . . . . . . . .


| /  slide up
| \  slide down
| h  hammer-on
| p  pull-off
| ~  vibrato
| +  harmonic
| .  Palm mute
===============================================================================
Tap to rate this tab
 
# A B C D E F G H I J K L M N O P Q R S T U V W X Y Z