Song name
# A B C D E F G H I J K L M N O P Q R S T U V W X Y Z

The Absence - From Your Grave tab

----------------------------------------------------------------------------
			     From Your Grave - The Absence
----------------------------------------------------------------------------
Tabbed by: chris_tbdm
Email: koolcriso@yahoo.com

Tuning: Drop C
(C-G-C-F-A-D)

D|--------------------------------------------------------------------------|
A|--------------------------------------------------------------------------|
F|--5h7-----5h7-----5h7-----8---7---5---5h7-----5h7-----5h7-----8---7---5---|
C|------555-----555-----555---5---5---5-------------------------------------|
G|------------------------------------------666-----666-----666---6---6---6-|
C|--------------------------------------------------------------------------|

D|--------------------------------------------------------------------------|
A|--------------------------------------------------------------------------|
F|--5h7-----5h7-----5h7-----8---7---5---5h7-----5h7-----10--8--7--8--7--5---|
C|------555-----555-----555---5---5---5-------------------------------------|
G|------------------------------------------666-----666---------------------|
C|--------------------------------------------------------------------------|

D|--------------------------------------------------------------------------|
A|--------------------------------------------------------------------------|
F|--/10-----8-----7-----10---8---7---8-----7-----5-----10---8---7---/10-----|
C|------555---555---555----5---5---5-----------------------------------555--|
G|-------------------------------------666---666---666----6---6---6---------|
C|--------------------------------------------------------------------------|

D|--------------------------------------------------------------------------|
A|--------------------------------------------------------------------------|
F|--8-----7-----10---8---7---8-----7-----5-----10-----8-----7---------------|
C|----555---555----5---5---5------------------------------------------------|
G|-----------------------------666---666---666------------------------------|
C|--------------------------------------------------------------------------|

D|--------------------------------------------------------------------------|
A|-----------------------------8------8--10--11--10--8----------------------|
F|------------7--8--10--8--10-----10--------------------8--10--8--7---------|
C|--7--8--10----------------------------------------------------------------|
G|--------------------------------------------------------------------------|
C|--------------------------------------------------------------------------|

The harmony part is just two frets higher each note.

| /  slide up
| \  slide down
| h  hammer-on
| p  pull-off
| ~  vibrato
| +  harmonic
| .  palm mute
============================================================================
Tap to rate this tab
# A B C D E F G H I J K L M N O P Q R S T U V W X Y Z