Song name
# A B C D E F G H I J K L M N O P Q R S T U V W X Y Z

The Absence - Merciless tab

/ slide
h hammer on
p pull off
b bend
r release bend

Intro part 1 - clean + reverb
|----------------------------------------------------------------------------------|
|----------------------------------------------------------------------------------|
|-----7-------7---7--------7---9-------9---9-------9---10-------10---10-------10---|
|-------7---7---7----7---7---7---6---6---6---6---6---6----7---7----7----7---7----7-|
|---------5------------5-----------5-----------5------------5-------------5--------|
|----------------------------------------------------------------------------------|

|-----------------------------|
|-----------------------------|
|---7-----------7-------------|
|-----7-8-7-8-----7-8-7-8-----|
|-------------10-----------10-|
|-----------------------------|

|---------------------------------------------------------------------------------|
|---------------------------------------------------------------------------------|
|---7-------7---7--------7---9-------9---9-------9---10-------10---10-------10--5-|
|-----7---7---7----7---7---7---6---6---6---6---6---6----7---7----7----7---7----7--|
|-------5------------5-----------5-----------5------------5-------------5---------|
|---------------------------------------------------------------------------------|

|-----------------------|
|-----------------------|
|-----------------------|
|-----------------------|
|--------4-5-6-6-5-4-8--|
|--5-7-8----------------|

Intro part 2 - gain / distortion
|------------------------------------------------------------|
|------------------------------------------------------------|
|-14--14p12/10-12-12/14-13-9--14--14p12/10-12-14-14b15r14-9--|
|------------------------------------------------------------|
|------------------------------------------------------------|
|------------------------------------------------------------|

|-17-------15----------17------------------------------------------------------13-12-----|
|----15-------17-18-15----15----15h17p15-13-13h15p13---15-13---13--------------------13--|
|-------17-------------------17---------------------14-------14---10h12p10------------14-|
|-------------------------------------------------------------------------12-------------|
|----------------------------------------------------------------------------------------|
|----------------------------------------------------------------------------------------|

|-------------------------------------------------------------------------------------|
|-------------------------------------------------------------------------------------|
|-------------------14----------------17-15-14----14-15--14h15-12h13-10h12-9h10-7h9-6-|
|-15-14----------14----17-15-14-15-17----------17-------------------------------------|
|-------17-16-17----------------------------------------------------------------------|
|-------------------------------------------------------------------------------------|
Tap to rate this tab
 
# A B C D E F G H I J K L M N O P Q R S T U V W X Y Z