Song name
# A B C D E F G H I J K L M N O P Q R S T U V W X Y Z

The Absence - My Ruin tab

Song: MY RUIN
Band: The Absence
Tabber: adrian b.
Creator: stefan h.
Tuning: Drop B

this is my 1st tab so please comment

this song sounds good in standard tunin also

-----------------------------|
-----------------------------|
-----------------------------|
--------7---6----------------|    x2
-----------------7-8-7-------|
-----------------------------|
----5-5---5----5-------------|
    x x   x    x

then

-------------------------------|
-------------------------------|
-------------------------------|
---------12----11--------------|  x2
---------------------12-11-12--|
---10-10----10----10-----------|
    x  x     x     x

then

----------------------------------|
----------------------------------|
-------7---6----------------------|
---------------7-6-7--------------|  x2
----------------------------------|
---7-7---7---7--------------------|
   x x   x   x


then

-----------------------------------|
-----------------------------------|
-------7---6-----------------------|
----------------7-6-7--------------|
-----------------------------------|
---7-7---7---7---------------------|
-----------------------------------|
   x x   x   x

then

-----------------------------------|
-----------------------------------|
-------7---6-----------------------|
---------------7-6-7---------------|
---8-8---8---8---------------------|
-----------------------------------|
   x x   x   x

repeat these measures twice

thats the intro hope u enjoyed
Tap to rate this tab
 
# A B C D E F G H I J K L M N O P Q R S T U V W X Y Z