Guitaretab - guitar tabs
Song name
# A B C D E F G H I J K L M N O P Q R S T U V W X Y Z

The Acacia Strain - Halcyon tab

HALCYON TAB by THE ACACIA STRAIN
Normal tuning

s- Slide
h- Hammer
b- Bend

This is my first time ever making tabs so if it’s a wrong don’t get mad.

Intro
|-------------------------------------------------------------------------------------------------|
|----------3-------------3----------3-----------------3---------3--------3---------------3-------3|
|-------0-------------0-----------0---0----0--------0--------0---------0----0---0------0-------0--|
|----2-------------4-----------2---------2-------2---------4---------2---------2------2-------4---|
|--3------------5------------3-----------------3---------5---------3-----------------3-------5----|
|-------------------------------------------------------------------------------------------------|

|---------------------------------------------------0--|
|--------3--------------3-------3------3------------3--|
|------0---0--0-------0-------0------0---0----------0--|       
|----2-------2------2--------4------2-------2-------2--|
|--3--------------3--------5-------3----------------3--|
|----------------------------------------------------- |

|-----------------------------------------------------------------------------|
|------------3-----------------3---------3--------3---------------3-------3---|
|----------0---0----0--------0--------0---------0----0---0------0-------0-----|
|-------2---------2-------2---------4---------2---------2------2-------4------|
|-----3-----------------3---------5---------3-----------------3-------5-------|
|-----------------------------------------------------------------------------|

|-----------------------------------------------0---0--|
|--------3--------------3-------3------3--------3---3--|
|------0---0--0-------0-------0------0---0------0---0- |       
|----2-------2------2--------4------2------2----2---4--|
|--3--------------3--------5-------3------------3---5--|
|-----------------------------------------------0---0--|

|--0000-00-----------------000---000000--|
|--3333-33-----------------333---333333--|
|--0000-00----------7-4----000---000000--|
|--2222-22-----2-5------5--222---444444--|
|--3333-33—3h5-------------333---555555--|
|--0000-00-----------------000-- 000000--|


|--0000-00----------------000000-- 000000--|
|--3333-33----------------333333---333333--|
|--0000-00---------7-4----000000---000000--|
|--2222-22-----2-5-----5--222222---444444--|
|--3333-33—3h5------------333333---555555--|
|--0000-00----------------000000-- 000000- |

|--0000-00----------------000---000000--|
|--3333-33----------------333---333333--|
|--0000-00---------7-4----000---000000--|
|--2222-22-----2-5-----5--222---444444--|
|--3333-33—3h5------------333---555555--|
|--0000-00----------------000-- 000000--|



|--0000-00----------------000000-- 0000--|
|--3333-33----------------333333---3333--|
|--0000-00---------7-4----000000---0000--|
|--2222-22-----2-5-----5--222222---4444--|
|--3333-33—3h5------------333333---5555--|
|--0000-00----------------000000—--0000--|



[ Tab from: http://www.guitaretab.com/t/the-acacia-strain/141291.html ]
|--------------------------------------------------------|
|--------------------------------------------------------|
|--------------------------------------------------------|
|---------7-9-------7-9-7--------------------------------|
|-7-9-10------7h9-10-------10-9----7-9-10----7-9-10-9-7--|
|-------------------------------8----------8-------------|

|-----------------------------------------------------------------|
|-----------------------------------------------------9s12-10-8---|
|----------------------------------------9h11-12-9h11-------------|
|----------7-9---------7-9-7-------9h11---------------------------|
|-7-9-10------7h9-10--------10-9----------------------------------|
|-----------------------------------------------------------------|

|--------------------------------------------------------|
|--------------------------------------------------------|
|--------------------------------------------------------|
|----------7-9-------7-9-7-------------------------------|
|-7-9-10------7h9-10-------10-9----7-9-10----7-9-10-9-7--|
|-------------------------------8----------8-------------|

|-----------------------------------------------------------------|
|-----------------------------------------------------------------|
|---------------------------------------9h11-12-------------------|
|----------7-9----------7-9-7------9h11---------12-10-9-10--------|
|-7-9-10------7h9-10---------10-9--------------------------12-10--|
|-----------------------------------------------------------------|


|--0000-00---------------------000---000000--|
|--3333-33---------------------333---333333--|
|--0000-00-------------7-4---- 000---000000--|
|--2222-22-------2-5-------5---222---444444--|
|--3333-33—3h5-----------------333---555555--|
|--0000-00---------------------000-- 000000--|

|--0000-00-------------------000000-- 000000--|
|--3333-33-------------------333333---333333--|
|--0000-00------------7-4----000000---000000--|
|--2222-22-------2-5------5--222222---444444--|
|--3333-33—3h5---------------333333---555555--|
|--0000-00-------------------000000-- 000000- |

|--0000-00--------------------000---000000--|
|--3333-33--------------------333---333333--|
|--0000-00-------------7-4----000---000000--|
|--2222-22-------2-5-------5--222---444444--|
|--3333-33—3h5----------------333---555555--|
|--0000-00--------------------000-- 000000--|

|--0000-00--------------------000000-- 0000-------0-----0---|
|--3333-33--------------------333333---3333-------3-----3---|
|--0000-00-------------7-4----000000---0000-------0-----0---|
|--2222-22-------2-5-------5--222222---4444-------2-----4---|
|--3333-33—3h5----------------333333---5555-------3-----5---|
|--0000-00--------------------000000—--0000- ---- 0-----0---|

Solo
|-----------------------------------------------------------|
|------5-7-8—10b-9h10-7--7-8-10-8-7------5------------------|
|--7b-------------------------------8-8b---7---444-5-4-0----|
|-----------------------------------------------------------|
|-----------------------------------------------------------|
|-----------------------------------------------------------|


|19b-16--15-16-17-16-15------------------------------------------------------------|
|------------------------16-16b-16-12-13-12-12-12h13-12-10-8-7-8-10-8-7------------|
|-------------------------------------------------------------------------8-7-9-12-|
|----------------------------------------------------------------------------------|
|----------------------------------------------------------------------------------|
|----------------------------------------------------------------------------------|
Related for Halcyon tab