Song name
# A B C D E F G H I J K L M N O P Q R S T U V W X Y Z

The Acacia Strain - 4x4 tab

The Acacia Strain
The Dead Walk
#3. 4x4
DROP G (G-D-G-C-E-A)
tab by Dan Roth

|-------------------------------------------------------------------|
|-------------------------------------------------------------------|
|-------------------------------------------------------------------|
|-------------------------------------------------------------------|
|---8---4-5-1-----8---4-5-1--------------------4-5-1-----8---4-5-1--|
|---8---4-5-1-----8---4-5-1--111-114-3-1-3-8---4-5-1-----8---4-5-1--|
                                           ~

|----------------------------|
|----------------------------|
|----------------------------|
|----------------------------|
|---8---4-5-1--0-0--0-0--0---|
|---8---4-5-1--0-0--0-0--0---| then repeat the 2nd part above and etc
               * *  * *  *
1st and 3rd                       2nd and 4th
|-------------------------------||-------------------------------|
|-------------------------------||-------------------------------|
|-------------------------------||-------------------------------|
|-------------------------------||-------------------------------|
|-1-0-0-3-0-4-0-1-0-0-0-0-0-0-0-||-1-0-0-3-0-4-0-1-0-0-----------|
|-1-0-0-3-0-4-0-1-0-0-0-0-0-0-0-||-1-0-0-3-0-4-0-1-0-0-114-3-1-3-|
    * *   *   *   * * * * * * *      * *   *   *   * *   

|--------------|
|--------------|
|--------------|
|--------------|
|-----4-5-1--4-|
|-8---4-5-1--4-|
  ~

|-0000 10h12 00 10h12 0000 10h12 0000 10h12 00 10h12 10-|
  ****       **       ****       ****       **       ~~
                                            6-5-3-|
|-0000 10h12 00 10h12 0000 10h12 0000 10h12 6-5-3-|
  ****       **       ****       ****       

then the slower palm muted opens and solo, then that badass part at 1:10
Tap to rate this tab
# A B C D E F G H I J K L M N O P Q R S T U V W X Y Z