Song name
# A B C D E F G H I J K L M N O P Q R S T U V W X Y Z

The Acacia Strain - Jfc tab

Jesus Fucking Christ-The Acacia Strain

hey guys i noticed this song hadn't been tabbed yet so i made it its mostly open 
strings.Sorry if theres any mistakes this is my first tab 

add the band i am in www.myspace.com/theydeservetodieofficial


B|-----------|
G|-----------|
D|-----------|
A|-----------| repeat several times
E|-0-00-000--| 
A|-0-00-000--|
 
B|------------------------|   |--------------------------|
G|------------------------|   |--------------------------|
D|------------------------|   |--------------------------|
A|------------------------|x3 |--------------------------|
E|-0-00--0-00--0-00--001--|   |-001-001-001-001-0--------|
A|-0-00--0-00--0-00--001--|   |-001-001-001-001-0--------|

B|-----------------------------------------------------|
G|-----------------------------------------------------|
D|-----------------------------------------------------|
A|-------------------------------------4444--------2222|
E|-0-00-0-00-0-00----0-00-0-00-0-00--------33330000----|
A|-0-00-0-00-0-0033330-00-0-00-0-003333----------------|

B|-----------------------------------------------------|
G|-----------------------------------------------------|
D|-----------------------------------------------------|
A|-------------------------------------4444----55554444|
E|-0-00-0-00-0-00----0-00-0-00-0-00--------3333--------|
A|-0-00-0-00-0-0033330-00-0-00-0-003333----------------|

B|-----------------------------------------------------|
G|-----------------------------------------------------|
D|-----------------------------------------------------|
A|-------------------------------------4444--------2222|
E|-0-00-0-00-0-00----0-00-0-00-0-00--------33330000----|
A|-0-00-0-00-0-0033330-00-0-00-0-003333----------------|


B|-----------------------------------------------------|
G|-----------------------------------------------------|
D|-----------------------------------------------------|
A|-------------------------------------4444----55554444|
E|-0-00-0-00-0-00----0-00-0-00-0-00--------3333--------|
A|-0-00-0-00-0-0033330-00-0-00-0-003333----------------|


B|-----------------------------------------------------|
G|-----------------------------------------------------|
D|-----------------------------------------------------|
A|-----------------------------------------------------|
E|-0-00-0-00-0-00-0-00-0-00-0-00-0-00-0-00-0-00-0-00---|
A|-0-00-0-00-0-00-0-00-0-00-0-00-0-00-0-00-0-00-0-00---|


B|------|            B|--------|
G|------|            G|--------|
D|------|            D|--------|
A|------| REPEAT     A|--------| REPEAT
E|-000--|            E|-0-00---|
A|-000--|            A|-0-00---|

B|13-12---|            
G|------12|            
D|--------|            
A|--------|X12     
E|--------|          
A|--------|

B|-----------------------------------------------------|
G|-----------------------------------------------------|
D|-----------------------------------------------------|
A|-----------------------------------------------------|
E|-0-00-0-00-0-00-0-00-0-00-0-00-0-00-0-00-0-00-0-00---|
A|-0-00-0-00-0-00-0-00-0-00-0-00-0-00-0-00-0-00-0-00---|
Tap to rate this tab
 
# A B C D E F G H I J K L M N O P Q R S T U V W X Y Z