Song name
# A B C D E F G H I J K L M N O P Q R S T U V W X Y Z

The Acacia Strain - Skynet tab

Skynet - The Acacia Strain
Tuning - Drop A#

Structure
Intro x8
Verse (only play part 2 twice) x3
Chorus x4
Verse x1
Chorus x3
Solo
Intro x8

Intro
e|-----------------------------------------------------------------------|
B|-----------------------------------------------------------------------|
G|-----------------------------------------------------------------------|
D|-----------------------------------------------------------------------|
A|4--1--3--0--2--0--0-1-2-4--1--3--2--0----------------------------------|
E|4--1--3--0--2--0--0-1-2-4--1--3--2--0--4*(fourth time only)------------|
(after fourth time slow downnn, listen to the song for rhythm)

Verse pt. 1
e|--------------------------------------------------------------------------|
B|--------------------------------------------------------------------------|
G|--------------------------------------------------------------------------|
D|--------------------------------------------------------------------------|
A|1-0-0-0-0-0-0-0-1-0-0-3-0-4-1-0-1-0-0-3-3-3-3-3-3-3-3---------------------|
E|1-0-0-0-0-0-0-0-1-0-0-3-0-4-1-0-1-0-0-3-3-3-3-3-3-3-3---------------------|
      . . . . . .   . .   .     . . . . . . . . . . . .

verse pt.2
e|--------------------------------------------------------------------------|
B|--------------------------------------------------------------------------|
G|--------------------------------------------------------------------------|
D|--------------------------------------------------------------------------|
A|1-0-0-0-0-0-0-0-1-0-0-3-0-4-1-0-1-0-0-3-3-3-3-1-1-1-1---------------------|
E|1-0-0-0-0-0-0-0-1-0-0-3-0-4-1-0-1-0-0-3-3-3-3-1-1-1-1---------------------|
      . . . . . .   . .   .     . . . . 

Chorus (Rhythm)
e|--------------------------------------------------------------------------|
B|--------------------------------------------------------------------------|
G|--------------------------------------------------------------------------|
D|--------------------------------------------------------------------------|
A|5-4-1------5-4-1-0--------------------------------------------------------|
E|5-4-1------5-4-1-0----0-0-0--0-0-0-0-0-0-0-0------------------------------|

Chorus (Lead)
e|--------------------------------------------------------------------------|
B|8-7-4------8-7-4-3--------------------------------------------------------|
G|--------------------------------------------------------------------------|
D|--------------------------------------------------------------------------|
A|--------------------------------------------------------------------------|
E|--------------------------------------------------------------------------|
on 3rd and 4th time use wah on the lead)


Solo (I'm not 100%, feel free to correct me (:)
e|8^10-6--10-11-9-7-5-6-8^10-6-5-3-2--0-------------------------------------|
B|--------------------------------------------------------------------------|
G|--------------------------------------------------------------------------|
D|--------------------------------------------------------------------------|
A|--------------------------------------------------------------------------|
E|--------------------------------------------------------------------------|

| /  slide up
| \  slide down
| h  hammer-on
| p  pull-off
| ~  vibrato
| *  harmonic
| .  Mute notE
Tap to rate this tab
# A B C D E F G H I J K L M N O P Q R S T U V W X Y Z