The Acacia Strain - Smoke Ya Later tab

guitar 1

|-5--5--5--5--5----8--8--5--5--5----|
|--6--6--6--6--6-6--6--6--6--6--6-6-|
|---7--7--7--7--7----7--7--7--7--7--| x4
|-----------------------------------|
|-----------------------------------|
|-----------------------------------|

guitar 2

|------------------|
|------------------|
|-7~-5-10\9-9\7-7~-| x4
|-x--x-x--x-x-x-x--|
|-5~-3-8\-7-7\5-5~-|
|------------------|

guitar 3

|----------|
|----------|
|----------|
|-8~-5~-0~-|
|-8~-5~-0~-|
|-8~-5~-0~-|

all guitars

|----------------------------------|
|----------------------------------|
|----------------------------------| x3
|-8~-10-11-10-8-0~-----------------|
|-8~-10-11-10-8-0~-0-000-0-000-000-|
|-8~-10-11-10-8-0~-0-000-0-000-000-|
                   . ... . ... ...

|------------------------------------------|
|------------------------------------------|
|------------------------------------------| x1
|-8~-10-11-10-8-0~-------------------------|
|-8~-10-11-10-8-0~-0-000-0-000-------------|
|-8~-10-11-10-8-0~-0-000-0-000-12\\slide\\-|
                   . ... . ...

all guitars

|-----------------------------------------------------------------|
|-----------------------------------------------------------------|
|-----------------------------------------------------------------| 1st &3rd
|-----------------------------------------------------------------| time
|-01210~-0132010~-0121032012101--01210~-0132010~-012103210--------|
|-01210~-0132010~-0121032012101--01210~-0132010~-012103210-3pinch-|
  .....  .......  .............  .....  .......  .........

|-------------------------------------------------------------|
|-------------------------------------------------------------|
|-------------------------------------------------------------| 2nd time
|-------------------------------------------------------------|
|-01210-0132010-0121032012101--01210-0132010-012103210-3pinch-|
|-01210-0132010-0121032012101--01210-0132010-012103210--------|
  ..... ....... .............  ..... ....... .........

|------------------------------------------------------------------|
|------------------------------------------------------------------|
|------------------------------------------------------------------| 4thtime
|------------------------------------------------------------------|
|-01210-0132010-0121032012101--01210-0132010-012103210-------------|
|-01210-0132010-0121032012101--01210-0132010-012103210-12\\slide\\-|
  ..... ....... .............  ..... ....... .........

guitar 1

|-5--5--5--5--5----8--8--5--5--5----|
|--6--6--6--6--6-6--6--6--6--6--6-6-|
|---7--7--7--7--7----7--7--7--7--7--| x4
|-----------------------------------|
|-----------------------------------|
|-----------------------------------|

guitar 2

|------------------|
|------------------|
|-7~-5-10\9-9\7-7~-| x4
|-x--x-x--x-x-x-x--|
|-5~-3-8-\7-7\5-5~-|
|------------------|

guitar 3

|----------------------|
|----------------------|
|-10~-9-14\12-12\10-10-| x4
|-x---x-x--x--x--x--x--|
|-8~--7-12\10-10\8--8--|
|----------------------|

all guitars

|----------------------------------------------|
|----------------------------------------------|
|----------------------------------------------| x3 part in parentheses
|----------------------------------------------|    played by one guitar
|-(5-----5-3------------)---5-----5-3----------|    on 1st time then others
|-(--6-3-----6-5\3-0-3/5)-0---6-3-----5-3-0-00-|    come in
             .     .      .                 ..

|-----------------------------------------|
|-----------------------------------------|
|-----------------------------------------| x1
|-7-----7-5---------------7-----7-5-------|
|-5-6-3-5-3-6-5\3-0-3/5-0-5-6-3-5-3-5-3-0-|
|---6-3-----6-5\3-0-3/5-0---6-3-----5-3-0-|
            .     .     .

------------------------------------------|
------------------------------------------|
------------------------------------------|
--/5-/8-7---------------------------------|
------------------------------------------|
------------------------------------------|

------------------------------------------|
------------------------------------------|
------------------------------------------|
------------------------------------------|
--0-0-0--0-0-0-0-0-0-0--------------------|
--1-1-1--1-1-1-1-1-1-1--------------------|
it changes a little but yull finnd out.

-------------|
--11~--------|
-------14~---|
-------------|
-------------|
-------------|

------------------------------------------|
------------------------------------------|
------------------------------------------|
------7----8----7-------------------------|
--555---55---55---6-5---------------------|
------------------------------------------|
  ... . .. . .. 
------------------------------------------|
------------------------------------------|
------------------------------------------|
------------------------------------------|
--5---4---1---0---4---5---8---4---1---4---|
------------------------------------------|
easy just go with it

--------------------------|
--------------------------|
--------------------------|
--------------------------|
--------00000~------------|
--12/\--00000~------------|

-----------------------|
-----------------------|
-----------------------|
-----------------------|
--0000-/5-00000--------|
--0000----00000--------|

-----------------------|
-----------------------|
-----------------------|
-----------------------|
--0000-/5b--0----------|
--0000------0----------|
Tap to rate this tab
 
# A B C D E F G H I J K L M N O P Q R S T U V W X Y Z