The Acacia Strain - Tactical Nuke tab

Tactical Nuke by The Acacia Strain
Wormwood (2010)

Drop A - A E A D G b e (7-String)

e|-------------------------------------------------------------------------|
b|-------------------------------------------------------------------------|
G|-------------------------------------------------------------------------|
D|-------------------------------------------------------------------------|
A|--2--2-2--2-2-2---2~-----------------------------------------------------|
E|--2--2-2--2-2-2---2~---------Pickslide-----------------------------------|
A|--2--2-2--2-2-2---2~-----------------------------------------------------|
    .  . .  . . .   
e|-------------------------------------------------------------------------|
b|-------------------------------------------------------------------------|
G|-------------------------------------------------------------------------|
D|---------------------3/--------------------------------------------------|
A|---------------------3/----------------10-2-2-2~-------------------------|
E|---------------------1/----------------00-2-2-2~-------------------------|
A|-0~-0-0~-0-0-0~-0-0~----0~-0-0~-0-0-0~-10-2-2-2~-------------------------|
                                         ..

Rhythm isn't hard to figure out. It's an easy song. Enjoy it.
Tap to rate this tab
 
# A B C D E F G H I J K L M N O P Q R S T U V W X Y Z