Song name
# A B C D E F G H I J K L M N O P Q R S T U V W X Y Z

The Acacia Strain - Beast tab

-------------------------------------------------------------------------------
                            Beast - The Acacia Strain
-------------------------------------------------------------------------------
Tabbed by: Bacon (check out my band As Judgement Day Approaches)
Email: f2bacon@gmail.com

Tuning: F C F A# D G

|---------------------------------------------------------------------------| intro
|---------------------------------------------------------------------------|
|---------------------------------------------------------------------------|
|---------------------------------------------------------------------------|
|---------------------------------------------------------------------------|x1
|-0-00-00-00-00-00-2b-00-00-0-0~000-2b-00-00-00-00-00-2b-00-00-0-0~---------|

|---------------------------------------------------------------------------|
|---------------------------------------------------------------------------|
|---------------------------------------------------------------------------|
|---------------------------------------------------------------------------|main thingy
|---00-00-00-00-00----00-00-0---000----00-00-00-00-00----00-00-0----000-----|x2
|-0-00-00-00-00-00-2b-00-00-0-0~000-2b-00-00-00-00-00-2b-00-00-0-0~-000-2b--|

|---------------------------------------------------------------------------|
|---------------------------------------------------------------------------|
|---------------------------------------------------------------------------|
|---------------------------------------------------------------------------|
|-7-------4-3-4-------------------------------------------------------------|x1
|-7---0---4-3-4---00000000--------------------------------------------------|

|---------------------------------------------------------------------------|
|---------------------------------------------------------------------------|
|---------------------------------------------------------------------------|2step time
|---------------------------------------------------------------------------|
|-7-00---0-4-3-4-00000000---------------------------------------------------|x8
|-7-00-0-0-4-3-4-00000000---------------------------------------------------|

|---------------------------------------------------------------------------|
|---------------------------------------------------------------------------|chorus lead in
|---------------------------------------------------------------------------|
|-3------4-----6------------------------------------------------------------|
|-3------4-----6------------------------------------------------------------|x1
|---------------------------------------------------------------------------|

|---------------------------------------------------------------------------|
|---------------------------------------------------------------------------|
|---------------------------------------------------------------------------|chorus
|-8--7--4--8--7--3--8--7--3--4--1--8--7--4--8--7--3--8--7--3-4444444--------|
|-8--7--4--8--7--3--8--7--3--4--1--8--7--4--8--7--3--8--7--3-4444444--------|x1
|---------------------------------------------------------------------------|

|---------------------------------------------------------------------------|
|---------------------------------------------------------------------------|
|---------------------------------------------------------------------------|
|---------------------------------------------------------------------------|
|---------------------------------------------------------------------------|x1
|-0--00-00-00--00-----------------------------------------------------------|

main thingy x4
chorus x2

|---------------------------------------------------------------------------|
|---------------------------------------------------------------------------|
|---------------------------------------------------------------------------|
|---------------------------------------------------------------------------|
|---------------------------------------------------------------------------|
|-0--00-00-00--00~----------------------------------------------------------|


Feel free to check out my band
http://www.fb.me/asjudgementdayapproaches


************************************

| b   Bend

************************************
Tap to rate this tab
# A B C D E F G H I J K L M N O P Q R S T U V W X Y Z