Guitaretab - guitar tabs
Song name
# A B C D E F G H I J K L M N O P Q R S T U V W X Y Z

The Acacia Strain - Carbomb tab

Artist: The Acacia Strain
Album: 3750
Song: Carbomb

The Acacia Strain recorded this song tuned in Drop A# but I tabbed it out for Drop C (CGCFAD)
Intro
|----------|
|----------|
|----------| (guitar 1- left)
|----------|
|--0-0-----|
|--0-0-----|
|
|----------|
|----------|
|----------| (guitar 2- right)
|----------|
|--0-0-----|
|--0-0-----|
|
|----------|
|----------| 
|----------| (guitar 3- middle)
|----------|
|----------|
|----------|


Main riff              		       	           4x
|-----------------------|----------------------------|
|-----------------------|----------------------------|
|-----------------------|----------------------------| (all guitars)
|-----------------------|----------------------------|
|--1-1~--1111-1-1-1-1-1-|-1-1~--111-5p4-0-0-3p2-0-0--|
|--0-0~--0000-0-0-0-0-0-|-0-0~--000-5p4-0-0-3p2-0-0--|


Build-up
|-------------------|-------------------|
|-------------------|-------------------|
|-------------------|-------------------|
|-------------------|-------------------|
|--5p4-0-0-3p2-0-0--|-------------------|
|--5p4-0-0-3p2-0-0--|-------------------|
|
|-------------------|-------------------|
|-------------------|-------------------|
|-------------------|-------------------|
|-------------------|-------------------|
|-------------------|--5p4-0-0-3p2-0-0--|
|-------------------|--5p4-0-0-3p2-0-0--|
|
|-------------------|-------------------|
|-------------------|-------------------|
|-------------------|-------------------|
|-------------------|-------------------|
|-------------------|-------------------|
|-------------------|-------------------|
[ Tab from: http://www.guitaretab.com/t/the-acacia-strain/69040.html ]
|-------------------|-------------------|
|-------------------|-------------------|
|-------------------|-------------------|
|-------------------|-------------------|
|--x\\\\\\\\\\\\----|--x\\\\\\\\\\\\----|
|--x\\\\\\\\\\\\----|--x\\\\\\\\\\\\----|   
|
|-------------------|-------------------|
|-------------------|-------------------|
|-------------------|-------------------|
|-------------------|-------------------|
|-------------------|--x\\\\\\\\\\\\\---|
|-------------------|--x\\\\\\\\\\\\\---|
|
|-------------------|-------------------|
|-------------------|-------------------|
|-------------------|-------------------|
|-------------------|-------------------|
|--5p4-0-0-3p2-0-0--|--5p4-0-0-3p2-0-0--|
|--5p4-0-0-3p2-0-0--|--5p4-0-0-3p2-0-0--|

“This is true crime”                  4x
|-------------------|-------------------|
|-------------------|-------------------|
|-------------------|-------------------|
|-------------------|-------------------|
|--5p4-0-0-3p2-0-0--|-------------------|
|--5p4-0-0-3p2-0-0--|-------------------|

Outro                                 4x
|-------------------|-------------------|
|-------------------|-------------------|
|-------------------|-------------------|
|-------------------|-------------------|
|--5p4-0-0-3p2-0-0--|-------------------|
|--5p4-0-0-3p2-0-0--|-------------------|
|
|-------------------|-------------------|
|-------------------|-------------------|
|-------------------|-------------------|
|-------------------|-------------------|
|--5p4-0-0-3p2-0-0--|--9p8-x-x-8p7-x-x--|
|--5p4-0-0-3p2-0-0--|-------------------|
|
|-------------------|-------------------|
|-------------------|-------------------|
|-------------------|-------------------|
|-------------------|-------------------|
|--5p4-0-0-3p2-0-0--|-------------------|
|--5p4-0-0-3p2-0-0--|-------------------|

End on
|----------|
|----------|
|----------|
|----------|
|--0-0-----|
|--0-0-----|




Related for Carbomb tab