Guitaretab - guitar tabs
Song name
# A B C D E F G H I J K L M N O P Q R S T U V W X Y Z

The Acacia Strain - Sun Poison And Skin Cancer tab

All I have is the intro for now

Sun poison and skin cancer

from the acacia strain's album "3750"

Both guitars pick scrape

Guitar two
|---------------------------------------------------------|
|---------------------------------------------------------|
|---------------------------------------------------------|
|-5h7p5p0-00-7h8p7p0-00-3h5p3p0-00-7h8p7p0-00-8h10p8p0----|
|------------------------------------------------------12-|
|---------------------------------------------------------|
          ..         ..         ..         ..

Guitar two continued
|-----------------------------------------------|
|-----------------------------------------------|
|-----------------------------------------------|
|-5h7p5p0-00-7h8p7p0-00-3h5p3p0-7777777-7-5-3-2-|
|-------------------------------8888888-8-7-5-3-|
|-----------------------------------------------|
          ..         ..          ...... . . . .

Do that once then do this twice

Guitar one
|----|
|----|
|----|
|----|
|-0~-|
|-0~-|

Guitar two
|---------------------------------------------------------|
|---------------------------------------------------------|
|---------------------------------------------------------|
|-5h7p5p0-00-7h8p7p0-00-3h5p3p0-00-7h8p7p0-00-8h10p8p0----|
|------------------------------------------------------12-|
|---------------------------------------------------------|
          ..         ..         ..         ..

Guitar one (stoccato)
|---|
|---|
|---|
|---|
|-0-|
|-0-|
[ Tab from: http://www.guitaretab.com/t/the-acacia-strain/92197.html ]
Guitar two
|-------------------------------|
|-------------------------------|
|-------------------------------|
|-5h7p5p0-00-7h8p7p0-00-3h5p5p0-|
|-------------------------------|
|-------------------------------|
          ..         ..

Both guitars
|-----------------|
|-----------------|
|-----------------|
|-7777777-7-5-3-2-|
|-8888888-8-7-5-3-|
|-----------------|
   ...... . . . .

After dong that twice do this four times

Guitar one
|---------------------------|
|---------------------------|
|---------------------------|
|---------------------------|
|-00-00~-0---------000000-0-|
|-00-00~-0---------000000-0-|
  .. ..  .         ...... .
 
Guitar two
|---------------------------------------------------------|
|---------------------------------------------------------|
|---------------------------------------------------------|
|-5h7p5p0-00-7h8p7p0-00-3h5p3p0-00-7h8p7p0-00-8h10p8p0----|
|------------------------------------------------------12-|
|---------------------------------------------------------|
          ..         ..         ..         ..

Guitar one
|----------|
|----------|
|----------|
|----------|
|-00-00~-0-|
|-00-00~-0-|
  .. ..  .

Guitar two
|-------------------------------|
|-------------------------------|
|-------------------------------|
|-5h7p5p0-00-7h8p7p0-00-3h5p3p0-|
|-------------------------------|
|-------------------------------|
          ..         ..

Both guitars
|-----------------|
|-----------------|
|-----------------|
|-7777777-7-5-3-2-|
|-8888888-8-7-5-3-|
|-----------------|
   ...... . . . .

thats all I have for now, I'll post more when I figure it out, enjoy
Related for Sun Poison And Skin Cancer tab