Song name
# A B C D E F G H I J K L M N O P Q R S T U V W X Y Z

The Academy Is - Beware Cougar tab

Artist: The Academy Is...
Song: Beware! Cougar!
Album: Fast Times At Barrington High

[----------------------------|
[----------------------------|
[----------------------------|
[-7-5-4---0-2--7-5-4-0-2-----|
[-------4----------------4-5-|
[----------------------------|

Pre-Chorus

[----------------------------|
[----------------------------|
[----------------------------|
[--7--------------7----------|
[--5-8x-2----5----5-4x-7-----|
[-------0-8x-3-8x------5-4x--|

Verse

[---------------------------|
[---------------------------|
[------------9-8x-14-8x-----|
[--4------------------------|
[--2-8x-5-------------------|
[-------3-8x----------------|

Solo

[--------------------------------------------14b17p14-12-9b-|
[-----------------------------------------------------------|
[--14b-14--------14b-14--------14b-14-17b-14----------------|
[---------14b-12--------14b-12------------------------------|
[-----------------------------------------------------------|
[-----------------------------------------------------------|
Tap to rate this tab
# A B C D E F G H I J K L M N O P Q R S T U V W X Y Z