Song name
# A B C D E F G H I J K L M N O P Q R S T U V W X Y Z

The Academy Is - The Phrase That Pays Acoustic tab

             /---------------------------------------------------\
                   The Phrase The Phrase That Pays
            /------------------------------------------------------\

This probably isnt totally correct but this is how i play it on my acoustic.
Its fairly easy.I got the basic parts im still figuring it outits guitar 1 only. Be nice 
is my first tab.

Tuning:DADGBE

0:00 "my eyes..."
e|-----------------|    e|--------------------------|
b|-----------------|    b|--------------------------|
g|-----------------|    g|--------------------------|
d|---2-x12--22-22--|    d|--2222--2222--2222--2222--|
a|---0------22-33--|    a|--0000--2222--3333--2222--|
D|-----------------| x8 d|--------------------------| x4
     *      ** **           ****  ****  ****  ****

"some things..."         "hold your..."
e|----------|           e|-------------||----------------------------------|
b|----------|just play  b|-------------||----------------------------------|
g|----------|it how it  g|-------------||----------------------------------|
d|--3-------|sounds 26  d|--5~--2~-----||-55-5-55-5-55-5-5-77-7-77-7-77-7-7|
a|--3---x26-|might not  a|--5~--2~-----||-55-5-55-5-55-5-5-77-7-77-7-77-7-7|
D|--3-------|be exact   d|--5~--2~-----||-55-5-55-5-55-5-5-77-7-77-7-77-7-7|

                             verse 2          "i never tried..."
x2  |---------------------| |-------------|   |--------------|
    |---------------------| |-------------|   |--------------|
    |---------------------| |-------------|   |--------------|
    |55-5-55-5-55-5-5-----| |22-2-22-2~---|x2 |-2-----22-22--|x2
    |55-5-55-5-55-5-5-----| |00-0-00-3~---|   |-0-x12-22-33--|
    |55-5-55-5-55-5-5-----| |-------------|   |--------------|
                                                *     ** **

|----------------------|    |---------------------|
|----------------------|    |---------------------|
|----------------------|    |---------------------|
|-2222-2222-2222-2222--|x4  |-3--------5~---2~----|
|-0000-2222-3333-2222--|    |-3-x16----5~---2~----|
|----------------------|    |-3--------5~---2~----|


|----------------------------------|
|----------------------------------|
|----------------------------------|
|-55-5-55-5-55-5-5-77-7-77-7-77-7-7|x2
|-55-5-55-5-55-5-5-77-7-77-7-77-7-7|
|-55-5-55-5-55-5-5-77-7-77-7-77-7-7|


so far thats all ive got please comment!
Tap to rate this tab
 
# A B C D E F G H I J K L M N O P Q R S T U V W X Y Z