Guitaretab - guitar tabs
Song name
# A B C D E F G H I J K L M N O P Q R S T U V W X Y Z

The Academy Is - Seed tab

| Song: Seed
| Band: The Academy Is
| Album: Santi

| Tabbed By: Lackofcolor


[ Intro ]     [ 0:00 - 0:10 ]

e|----------------------------------|
B|----8~-7~-3~----------8~-7~-3~----|
G|----------------------------------|
D|----------------------------------|
A|----------------------------------|
E|----------------------------------|

[ Chorus ]    [ 0:40  1:05 ]

e|--------------------------------------------------------------------------|
B|--------------------------------------------------------------------------|
G|--------------------------------------------------------------------------|
D|-555555555555555---55555555555555555555555555-222222222222222222222222222-|
A|-555555555555555---55555555555555555555555555-222222222222222222222222222-|
E|-333333333333333---33333333333333333333333333-000000000000000000000000000-|
                 love, love, holding on to some pieces that you left behind

|---------------------------------------------------------------------------|
|---------------------------------------------------------------------------|
|--777777777777777777777777777----------------------------------------------|
|--777777777777777777777777777-77777777777777777777777777777777-222222222222|
|--555555555555555555555555555-77777777777777777777777777777777-222222222222|
|------------------------------55555555555555555555555555555555-000000000000|
   hope, now, as i walk away. you're the one that finds me out  run from the

|-----------------------------------|
|-----------------------------------|
|-----------------------------------|
|-222222222222222-55555555555555555-|
|-222222222222222-55555555555555555-|
|-000000000000000-33333333333333333-|
  only thing left that I hold close


[  Verse ]     [ 1:19  1:40 ]
[ Tab from: http://www.guitaretab.com/t/the-academy-is/156076.html ]
e|-------------------------------------------------------------------14-----|
B|--------------------/1515151515151515151515151515151515151515151515--1515-|
G|--------------------------------------------------------------------------|
D|--------------------------------------------------------------------------|
A|--------------------------------------------------------------------------|
E|--------------------------------------------------------------------------|
         If i could express it in a different dialect or in a delicate way,

|-----------------------------14----------------------------------14---------|
|-1515151515151515151515151515--1515151515151515151515151515151515151515---|
|----------------------------------------------------------------------------|
|----------------------------------------------------------------------------|
|----------------------------------------------------------------------------|
|----------------------------------------------------------------------------|
 i'd capture the phrases inside the cage beneath my chest and keep it locked


|--------------14-------------------------------14------------------|
|-1515151515151515151515151515--151515151515151515151515151515-----|
|-------------------------------------------------------------------|
|-------------------------------------------------------------------|
|-------------------------------------------------------------------|
|-------------------------------------------------------------------|
 for days i wanted you so desperately to believe it...


[ Bridge ] [2:18  2:47 ]


e|----------------------------------------------------------|
B|----------------------------------------------------------|
G|------0---0--------0---0---------0---0--------0---0-------|
D|----4---4---4----4---4---4-----4---4---4----4---4---4-----| [X3]
A|--2------------0--------------------------0---------------|
E|-----------------------------3----------------------------|


[ Piano Part]

e|-15----------|
B|----19-15----|
G|----------14-|
D|-------------|
A|-------------|
E|-------------|


Ok so Its not Completely done, but its very close. And Ive been getting a lot of Pms
when it will be up so Im just posting it now. ENJOY =)
Related for Seed tab