Song name
# A B C D E F G H I J K L M N O P Q R S T U V W X Y Z

The Academy Is - About A Girl tab

Artist: The Academy Is...
Album: Fast Times At Barrington High
Song: About a Girl
Tuning: Dropped D

Intro

[--999-9-999-1010-777-7-777-1212-1010-999-99779-5---|
[---------------------------------------------------|
[---------------------------------------------------|
[-------------lead----------------------------------|
[---------------------------------------------------|
[---------------------------------------------------|

[---------rythm-------------|
[---------------------------|
[--7----9----6----4---------|
[--7-8x-9-8x-6-8x-4-8x------|
[--5----7----4----4---------|
[---------------------------|

verse figure out the rythm

[--------------------------|
[--------------------------|
[---7--9--6-11-------------|
[---x--x--x-x--------------|
[---5--7--4-9--------------|
[--------------------------|

pre chorus

[-----------------------------|
[-------5h7p5-------9---------|
[-----7----------9------------|
[---7----------9------xxx-xxx-|
[-5----------7--------xxx-xxx-|
[---------------------xxx-xxx-|

chorus

[----------------------------1212-1010109-999------------|
[---------------------------------------------10\5/9-999-| then straight to intro
[--------------7----9------------------------------------|
[--7-----4-----7-8x-9-8x---------------------------------|
[--7-16x-4-16x-5----7------------------------------------|
[--7-----4-----------------------------------------------|

bridge

[------------------------------------------|
[------------------------------------------|
[----------------------7-------------------|
[-7\--xxx-xxx--xxx-xxx-7-8x-2----4----7----|
[-7\--xxx-xxx--xxx-xxx-5----2-8x-4-8x-7-8x-|
[-7\--xxx-xxx--xxx-xxx------2----4----7----|

       7\
the 7\ is from the second chorus
       7\
Tap to rate this tab
 
# A B C D E F G H I J K L M N O P Q R S T U V W X Y Z