Song name
# A B C D E F G H I J K L M N O P Q R S T U V W X Y Z

The Academy Is - New York Saint In The City chords

Highlighted       Show chord diagrams
I've been working hard on this. please rate.

INTRO
e----7---11-7---7--7--11-7---7---7---9-7---7---7--9-7---7--/
B----------------------------------------------------------/
G--9---9------9---9--9-----9---9---9-----9---9---9----9----/
D----------------------------------------------------------/
A----------------------------------------------------------/
E----------------------------------------------------------/

A  B  Cm  E  A  B Cm  E

VERSE 1
                            E                      Cm
She said "You can't stay a saint that long in the city"
                    E                  Cm
you laugh at the thought on the the elevator down
Cm
You're just a phone call away

e----7---11-7---7--7--11-7---7-/
B------------------------------/
G--9---9------9---9--9-----9---/
D------------------------------/
A------------------------------/
E------------------------------/

Cm                                         E
You're placing a big blind bet on the underdog
E                                     
and though its a stretch, you believe
Cm
when you're against the odds, and on your feet
                     A              B          
with you at your best, and promises kept,
                   Cm                              E          
she'd rather stay here with you on the laziest afternoons with you.

CHORUS
E B                E             Cm         B
  Lost in pacific time with the sound of a dial tone
E B                           Cm  B           E
  let the memories count the miles and never be forgotten.

VERSE 2
You woke to the screech of the wheels on a runway
over an ocean of praise on a stage,
the songs of your love fall to your knees.
with you at your best, this is all you've got left,
she'd rather stay here with you on the laziest afternoons with you.

CHORUS

BRIDGE
         G#m                               A
Was it something that she said, something that she did
              B
to make you leave her here alone?
         G#m                               A
Was it something that you said, something that you did
         B
to make her leave you here?
          B
Don't leave me here alone.

CHORUS
Tap to rate this tab
# A B C D E F G H I J K L M N O P Q R S T U V W X Y Z