Song name
# A B C D E F G H I J K L M N O P Q R S T U V W X Y Z

The Academy Is - Sputter tab

The Academy Is...

Sputter

E|--8--7------------------8--7----------------8--7----------------------------------------|
B|--------8-----10--8-----------8-----10--8---------8-----10--8---------------------------|
G|-----------7---------7-----------7---------7---------7---------7-7/5--5/4-4/2-2\4-------|
D|----------------------------------------------------------------------------------------|
A|----------------------------------------------------------------------------------------|
E|----------------------------------------------------------------------------------------|

E|--8--7------------------8--7----------------8--7----------------------------------------|
B|--------8-----10--8-----------8-----10--8---------8-----10--8---------------------------|
G|-----------7---------7-----------7---------7---------7---------7-7/5--5/4-4/2-2\4p0-----|
D|----------------------------------------------------------------------------------------|
A|----------------------------------------------------------------------------------------|
E|----------------------------------------------------------------------------------------|


Wake up, try on your new disguise,
Would they recognize you anyway?

E|--------------------|
B|--------------------|
G|-------0------------| Volume Swell
D|--------------------|
A|--------------------|
E|--------------------|

Would they?

Dead leaves lie down beneath your feet
As you step into the street and
Notice the distance between the hearts and homes


But still you know it's alright.

  Cadd9   D (play as arpeggios)

E|--0-----2-----------------------------------------|
B|--3-----3-----------------------------------------|
G|--0-----2------------7----------------------------|
D|--2-----0--------9----------7----9----------------|   X2
A|--3----------7----------7-------------------------|
E|--------------------------------------------------|

But still you know it's alright.
You're not looking back this time.
You know it's alright.
You're stepping on the cracks and you feel fine.

Don't waste your breath.

E|------------------------------------------------------------------------------------------|
B|------------------------------------------------------------------------------------------|
G|------4---5-----7--5-----7-5--------------------------------------------------------------|
D|--5---4---5--2--7--5--2--7-5--------------------------------------------------------------|
A|--5---2---3--2--5--3--2--5-3--------------------------------------------------------------|
E|--3----------0--------0-------------------------------------------------------------------|

You wouldn't want this anyway.
And if you did, I think I'd let you,

Talk this to death,

E|------------------------------------------------------------------------------------------|
B|------------------------------------------------------------------------------------------|
G|------4---5-----7--5-----7-5--------------------------------------------------------------|
D|--5---4---5--2--7--5--2--7-5--5-----------------------------------------------------------|
A|--5---2---3--2--5--3--2--5-3--5-----------------------------------------------------------|
E|--3----------0--------0-------3-----------------------------------------------------------|

or in circles like we're aeroplanes.
But all along I knew that we would sputter out.
We would sputter.

E|--8--7------------------8--7----------------8--7----------------------------------------|
B|--------8-----10--8-----------8-----10--8---------8-----10--8---------------------------|
G|-----------7---------7-----------7---------7---------7---------7-7/5--5/4-4/2-2\4-------|
D|----------------------------------------------------------------------------------------|
A|----------------------------------------------------------------------------------------|
E|----------------------------------------------------------------------------------------|

E|--8--7------------------8--7----------------8--7----------------------------------------|
B|--------8-----10--8-----------8-----10--8---------8-----10--8---------------------------|
G|-----------7---------7-----------7---------7---------7---------7-7/5--5/4-4/2-2\4p0-----|
D|----------------------------------------------------------------------------------------|
A|----------------------------------------------------------------------------------------|
E|----------------------------------------------------------------------------------------|

Outside constructions workers pour
A brand new basement floor.
But then the ground starts shaking
fault lines to your own front door.
I looked at this and thought of you,
And all that is and isn't true,
And with the strength left in me,
walked on while the walls came down.

It's alright.

  Cadd9   D (play as arpeggios)

E|--0-----2-----------------------------------------|
B|--3-----3-----------------------------------------|
G|--0-----2------------7----------------------------|
D|--2-----0--------9----------7----9----------------|   X2
A|--3----------7----------7-------------------------|
E|--------------------------------------------------|

You're not looking back this time.
You know it's alright.
I'm stepping on the cracks and I feel fine.

Don't waste your breath.

E|------------------------------------------------------------------------------------------|
B|------------------------------------------------------------------------------------------|
G|------4---5-----7--5-----7-5--------------------------------------------------------------|
D|--5---4---5--2--7--5--2--7-5--------------------------------------------------------------|
A|--5---2---3--2--5--3--2--5-3--------------------------------------------------------------|
E|--3----------0--------0-------------------------------------------------------------------|

You wouldn't want this anyway.
And if you did, I think I'd let you,

Talk this to death,

E|------------------------------------------------------------------------------------------|
B|------------------------------------------------------------------------------------------|
G|------4---5-----7--5-----7-5--------------------------------------------------------------|
D|--5---4---5--2--7--5--2--7-5--------------------------------------------------------------|
A|--5---2---3--2--5--3--2--5-3--------------------------------------------------------------|
E|--3----------0--------0-------------------------------------------------------------------|

or in circles like we're aeroplanes.
But all along I knew that we would sputter out.
We would sputter.

We would sputter.

E|---------------------------------|
B|---------------------------------|
G|--------5------------------------|   X4
D|--2--5--5------------------------|
A|--2--5--3------------------------|
E|--0--3---------------------------|

Solo Played over Chords:

E|-------------------------------------------------------------|
B|--8--7-----------8--7-----12--12--12--12/15--15--15--15--15--|
G|--------7--9--7--------7-------------------------------------| X 2
D|-------------------------------------------------------------|
A|-------------------------------------------------------------|
E|-------------------------------------------------------------|

E|--15--14------------15--14-------------------------------------|
B|----------15\17\15----------15--12--12--12--12\15--15--15--15--|
G|---------------------------------------------------------------| X2
D|---------------------------------------------------------------|
A|---------------------------------------------------------------|
E|---------------------------------------------------------------|

Don't waste your breath.

E|------------------------------------------------------------------------------------------|
B|------------------------------------------------------------------------------------------|
G|------4---5-----7--5-----7-5--------------------------------------------------------------|
D|--5---4---5--2--7--5--2--7-5--------------------------------------------------------------|
A|--5---2---3--2--5--3--2--5-3--------------------------------------------------------------|
E|--3----------0--------0-------------------------------------------------------------------|

You wouldn't want this anyway.
And if you did, I think I'd let you,

Talk this to death,

E|------------------------------------------------------------------------------------------|
B|------------------------------------------------------------------------------------------|
G|------4---5-----7--5-----7-5--------------------------------------------------------------|
D|--5---4---5--2--7--5--2--7-5--5-----------------------------------------------------------|
A|--5---2---3--2--5--3--2--5-3--5-----------------------------------------------------------|
E|--3----------0--------0-------3-----------------------------------------------------------|

or in circles like we're aeroplanes.
But all along I knew that we would sputter out.
We would sputter.

E|--8--7------------------8--7----------------8--7----------------------------------------|
B|--------8-----10--8-----------8-----10--8---------8-----10--8---------------------------|
G|-----------7---------7-----------7---------7---------7---------7-7/5--5/4-4/2-2\4-------|
D|----------------------------------------------------------------------------------------|
A|----------------------------------------------------------------------------------------|
E|----------------------------------------------------------------------------------------|

E|--8--7------------------8--7----------------8--7----------------------------------------|
B|--------8-----10--8-----------8-----10--8---------8-----10--8-----10--8-----------------|
G|-----------7---------7-----------7---------7---------7---------7---------7---5---4------|
D|----------------------------------------------------------------------------------------|
A|----------------------------------------------------------------------------------------|
E|----------------------------------------------------------------------------------------|
Tap to rate this tab
 
# A B C D E F G H I J K L M N O P Q R S T U V W X Y Z