Song name
# A B C D E F G H I J K L M N O P Q R S T U V W X Y Z

The Academy Is - Weve Got A Big Mess On Our Hands tab

im positive that this is 99.9% correct 


guitar 1-clean 
guitar 2-distorted, quieter than guitar 1/3 
guitar 3-clean 
guitar 4-clean, quieter than guitar 1/3 
guitar 5-acoustic 


Intro/Pre-Chorus 

Guitar 2 
e|-----------------| 
B|-----------------| 
G|-6~6~6~6~6~6~6~6-| 
D|-6~6~6~6~6~6~6~6-| 
A|-404040404040404-| 
E|-----------------| 

guitar 4 (play as harmonics) 
e|-----------------| 
B|-----------------| 
G|-----------------| 
D|-----------------| 
A|-4-4-4-4-4-4-4-4-| 
E|-----------------| 

Chorus/? x4 

guitar 1 
e|------------| 
B|------------| 
G|-6---444444/| 
D|-6-2~444444/| 
A|-4-2~222222/| 
E|---0~-------| 

guitar 3 
e|----/12121212\| 
B|----/12121212\| 
G|-----xxxxxxxx\| 
D|----/99999999\| 
A|--------------| 
E|--------------| 

Verse 1 

guitar 5 
e|---| 
B|---| 
G|-9-| 
D|-9-| x 65? 
A|-7-| 
E|---| 

Intro/Pre-Chorus 

Chorus x8 

verse 2 

guitar 5 
e|---| 
B|---| 
G|-9-| x 65? 
D|-9-| 
A|-7-| 
E|---| 

guitar 1 
e|----------------------------------| 
B|-9~~~9~~~9~~~9~~~------------9~~~-| 
G|-9~~~8~~~9~~~8~~~9~~~9~~~9~~~8~~~-| 
D|-----------------11--7---11-------| 
A|----------------------------------| 
E|----------------------------------| 

Intro/Pre-Chorus 

Chorus x8 

Pre-Bridge x4 

Guitar 1 
e|--------------------------------------------| 
B|-9999999-1010101010-1212121212-141414141414-| 
G|-xxxxxxx-x-x-x-x-x--x-x-x-x-x--x-x-x-x-x-x--| 
D|-6666666-7-7-7-7-7--9-9-9-9-9--111111111111-| 
A|--------------------------------------------| 
E|--------------------------------------------| 

Guitar 4 
e|-------------------------------------------| 
B|-------------------------------------------| 
G|-6666666-8888888888-999999999-111111111111-| 
D|-6666666-8888888888-999999999-111111111111-| 
A|-4444444-6666666666-777777777-9-9-9-9-9-9--| 
E|-------------------------------------------| 

Bridge pt.1 x2 

Guitar 3 
e|-00------0---| 
B|-0-0------0--| 
G|-1-----------| 
D|-2-----------| 
A|-2-----------| 
E|-0-----------| 

guitar 1 
e|-----------------| 
B|-----------------| 
G|-----------------| 
D|-----1-3-3-1-----| 
A|--2-4-------4-2--| 
E|-----------------| 

Guitar 4 
e|-----------------| 
B|-----------------| 
G|-----------------| 
D|-4h/o6-----------| 
A|-----------------| 
E|-----------------| 

Bridge pt.2 

Guitar 1 1st time play first part 2nd play both 
e|-----------------------------------------|-------| 
B|-----------4(slowly bend up to 1 step)---|p/o0---| 
G|-----------------------------------------|-------| 
D|-4h/o6-4-2-------------------------------|-------| 
A|-----------------------------------------|-------| 
E|-----------------------------------------|-------| 

Guitar 3 
e|-00------------0---| 
B|-0-0------------0--| 
G|-1-----------------| 
D|-2-----------------| 
A|-2-----------------| 
E|-0-----------------| 

Bridge pt.3 

guitar 1 
e|---------------| 
B|-555---4444444-| 
G|-6664444444444-| 
D|-6664444444444-| 
A|----444--------| 
E|---------------| 
pm ............. 

Guitar 4 
e|---------------| 
B|---------------| 
G|---------------| 
D|---------------| 
A|-444---2222222-| 
E|----222--------| 
pm ............. 

chorus x8 

Ending pt.1 x2 

guitar 1 
e|--------------------------------------------| 
B|/9999999-1010101010-1212121212-141414141414-| 
G|/xxxxxxx-x-x-x-x-x--x-x-x-x-x--x-x-x-x-x-x--| 
D|/6666666-7-7-7-7-7--9-9-9-9-9--111111111111-| 
A|--------------------------------------------| 
E|--------------------------------------------| 

guitar 4 
e|-------------------------------------------| 
B|-------------------------------------------| 
G|-6666666-8888888888-999999999--------------| 
D|-6666666-8888888888-999999999-44444444444--| 
A|-4444444-6666666666-777777777-44444444444--| 
E|------------------------------22222222222--| 

ending pt. 2 

guitar 1 
e|999999111111111112121212121414141414161616161617171717171919191921212121| 
B|xxxxxxx-x-x-x-x-x-x-x-x-x-xxxxxxxxxx------------------------------------| 
G|6666668-8-8-8-8-9-9-9-9-9-1111111111------------------------------------| 
D|------------------------------------------------------------------------| 
A|------------------------------------------------------------------------| 
E|------------------------------------------------------------------------| 

guitar 2-Intro/Pre-chorus 

guitar 1-bend up and down 
e|-----------| 
B|-9~~~~~~~~-| 
G|-----------| 
D|-----------| 
A|-----------| 
E|-----------| 

Tap to rate this tab
# A B C D E F G H I J K L M N O P Q R S T U V W X Y Z