Song name
# A B C D E F G H I J K L M N O P Q R S T U V W X Y Z

The Academy Is - Lax To Ohare tab

Song: Laz to O’Hare
Band: The Academy Is…

Ok so second song ive tabbed from SANTI. Before the album has even come out. Hehehe. 
here you go.
Standard Tuning.

Intro
e|----------------------------|-------------------------------|
B|----------------------------|-------------------------------|
G|----------------------------|-------------------------------|
D|----------77----------------|-------77-99-------------------|
A|-------99----99----2-4-5-4--|----99---------77-99-10-10-14~-|
E|----77-----------3----------|-77----------------------------|


Verse 1
This is on bass but Ill tab it out anyways. But since there actually is a guitar part 
im just gonna write guitar 1 being the bass and guitar 2 actually being the guitar.


Guitar 1 (bass)
e|---------------------|---------------------------|-----------------------|
B|---------------------|---------------------------|-----------------------|
G|---------------------|---------------------------|-----------------------|
D|---------------------|---------------------------|-----------------------|
A|---------------5-----|--------------10-10-9-8----|----------------5------|
E|-7-5-7-5-7-5-7---7-5-|-12-12-12--12--------------|--7-5-7-5-7-5-7---7-5--|

-----------------------------------|
-----------------------------------|
-----------------------------------|
-----------------------------------|
-----------------------------------|
---12-12-12-12-12-10-10-10-10-9-8--|

Guitar 2 (actual guitar)

e|----7--------7-----7-----7-----5~---2-------|
B|----7--------7-----7-----7-----5~---4-------|
G|----7--------7-----7-----7-----6~---4-------|
D|-------------------------------7~---4-------|
A|-------------------------------7~---2-------|
E|-------------------------------5~-----------|

Prechorus

0:28
e|----------------|
B|----------------|
G|---9999999999---|
D|---9999999999---|
A|---7777777777---|
E|----------------|

Chorus

0:30
e|-------------------------------------|----------------------------------|
B|-------------------------------------|----------------------------------|
G|-----------9999999-------------------|----------------------------------|
D|--9999999--9999999--2222222--5555555-|--9999999--7777777--2222222222222-|
A|--9999999--7777777--2222222--5555555-|--9999999--7777777--2222222222222-|
E|--7777777-----------0000000--3333333-|--7777777--5555555--0000000000000-|

-------------------------------------|---------------------------|
-------------------------------------|---------------------------|
-------------------------------------|---------------------------|
--9999999--7777777--2222222--5555555-|-22222--44444-55555-77777--|
--9999999--7777777--2222222--5555555-|-22222--44444-55555-77777--|
--7777777--5555555--0000000--3333333-|-00000--22222-33333-55555--|


Intro
Verse 1
Pre Chorus
Chorus

Interlude: 1:52

e|-----------------------|
B|-----------------------|
G|----7~-----------------|
D|----7~---7~---9~---5~--| X2
A|----5~---7~---9~---5~--|
E|---------5~---7~---3~--|

Verse 1

Chorus

Outro 3;09

e|-----------------------------------------------------------------------|--|
B|-----------------------------------------------------------------------|--|
G|-----------------------------------------------------------------------|--|
D|--------77---------------------77----------------------77--------------|--|
A|-----99----99---2-4-5-4-----99----99----2-4-5-4-----99----99---2-4-5-4-|--|
E|--77----------3----------77-----------3----------77----------3---------|--|

--------------------------------------------------------|
--------------------------------------------------------|
----------------------------------------------17~-------|
--------77-99---------------------------------17~-------|
-----99-------77-99-10-10-14-----77-99-10-10--15~-------|
--77----------------------------------------------------|
Tap to rate this tab
# A B C D E F G H I J K L M N O P Q R S T U V W X Y Z