Song name
# A B C D E F G H I J K L M N O P Q R S T U V W X Y Z

The Academy Is - Bulls In Brooklyn tab

-------------------------------------------------------------------------------
			     Bulls In Brookly - The Academy Is
-------------------------------------------------------------------------------
Tabbed by: adslam3
Email:

Tuning: Standard

The strumming may not be exact but it's damn close

Chorus (no guitar in verse)
Repeat this as many times as necessary
e|---------------------------------------------------------------------------|
B|---------------------------------------------------------------------------|
G|---------------------------------------------------------------------------|
D|-11\6-6--6/11\2-2--2-------------------------------------------------------|
A|-11\6-6--6/11\2-2--2-------------------------------------------------------|
E|--9\4-4--4/-9\0-0--0-------------------------------------------------------|

End of chorus (woah...woah..woah)
*strumming not shown, you can hear the change
e|--------------------------------------------------------------------------|
B|--------------------------------------------------------------------------|
G|--------------------------------------------------------------------------|
D|--7---9-------------------------------------------------------------------|
A|--7---9-------------------------------------------------------------------|
E|--5---7-------------------------------------------------------------------|

Bridge (piano part)
Repeat as many times necessary
e|--------------------------------------------------------------------------|
B|--------------------------------------------------------------------------|
G|------9-------9------11------9--------------------------------------------|
D|-9-11----9-11---9-11----9-11----------------------------------------------|
A|--------------------------------------------------------------------------|
E|--------------------------------------------------------------------------|

The rest of the song is the chorus and end of chorus!
The last chord is this chord
e|--------------------------------------------------------------------------|
B|--------------------------------------------------------------------------|
G|--------------------------------------------------------------------------|
D|-11-----------------------------------------------------------------------|
A|-11-----------------------------------------------------------------------|
E|--9-----------------------------------------------------------------------|
Note: for the chorus, the second guitar might just be strumming
the first two chords 8 times and the third one 16 times (?)
That should be it..have fun!!

| /  slide up
| \  slide down
| h  hammer-on
| p  pull-off
| ~  vibrato
| +  harmonic
| x  Mute note
===============================================================================
Tap to rate this tab
 
# A B C D E F G H I J K L M N O P Q R S T U V W X Y Z