Song name
# A B C D E F G H I J K L M N O P Q R S T U V W X Y Z

The Acorn - Oh Napoleon tab

Help us improve GuitareTab! Take a short survey!
 Standard Tuning

 h = Hammer-on
 ~ = Vibrato
 / = Slide

E --------------------------------------------------------------------|
B --------------------------------------------------------------------|
G --------10--------5------5---------------10--------5------5---------|
D --10h12-----10h12----5h7---5~------10h12-----10h12----5h7---5~------|
A --------------------------------------------------------------------|
E --------------------------------------------------------------------|

E ---------------------------|
B ---------------------------|
G ---------------------------|
D --10-10-7-7--7-10--7h10-5--|
A ---------------------------|
E ---------------------------|

E -----------------------------------|
B -----------------------------------|
G -----------5-----------------------|
D --3-3-6-7-----10h12-10/5-5---3-----|
A -----------------------------------|
E -----------------------------------|

  And Repeat
Related for Oh Napoleon tab