Song name
# A B C D E F G H I J K L M N O P Q R S T U V W X Y Z

The Acorn - Slippery When Wet tab

-------------------------------------------------------------------------------
			     SLIPPERY WHEN WET - The Acorn
-------------------------------------------------------------------------------
Tabbed by: Eleanor Mehlenbacher
Email: edare9439@gmail.com

Tuning: Standard
Capo 3rd fret

Done as accurately by ear as I could manage. The rhythm is a little difficult to keep in 
the tab, so you'll have to listen to the song to get it exactly right. Enjoy!


e|--3-----0-----------------------------------------------------------------|
B|----------1h3-1-----0h1------0h1-----3\1--3-----1-3\1---------1-----------|
G|-----0-----------2------2-0-------2---------2-----------0---------0-------|
D|---------2-----2---2---2---2----2-------2-----2-------2----------2--------|
A|-----------------------------------------------------------3---------3----|
E|-------------------------------------------------------------0--------0---|

e|-------3--0-0-------------------------------------------------------------|
B|----1----------1h3-1-------0h1------0h1--1-3\1--3\1--1-3\1-------0h1------|
G|--------0----0-------0-2--------2---------------------------0---------0---|
D|--2----------------------2----2---2----2------2----2------2---2----2----2-|
A|--------------------------------------------------------------------------|
E|--------------------------------------------------------------------------|

e|---------------------------0----------------------------------------------|
B|--0h1---1-3\1--3\1--1-3\1-----------0h1-------0h1-------------------------|
G|-------------------------2-----0---------0---------0----------------------|
D|-----2-------2----2----------2---2-----2---2-----2---2--------------------|
A|--------------------------------------------------------------------------|
E|--------------------------------------------------------------------------|



************************************

| /   slide up
| \   slide down
| h   hammer-on
| p   pull-off
| ~   vibrato
| +   harmonic
| x   Mute note
| b   Bend
| pb  Pre-bend
| br  Bend release
| pbr Pre-bend release
| brb Bend release bend

************************************
Tap to rate this tab
 
# A B C D E F G H I J K L M N O P Q R S T U V W X Y Z