Song name
# A B C D E F G H I J K L M N O P Q R S T U V W X Y Z

The Acro-brats - Callout tab

this is my second tab. you probably know all the abbreviations e.g h, p, tr, etc. I cant 
out the solo but it's pretty simple. email me mistakes at gcfan12110@foxvalley.net

tuning: standard: EADGBe

intro:
|--------------------------------------------------------------|
|--------------------------------------------------------------|
|--------------------------------------------------------------|
|9--9-9--------------------------9-9999------------------------|x2
|7--7-7-9--11-4-6--6--6--7--7--7-7------9--11-4-6--6--6--------|
|-------7--9--2-4--4--4--5--5--5--------7--9--2-4--4--4-5-5-2-0|

verses
|----------------------------------------|
|----------------------------------------|
|----------------------------------------|
|6-----------6-6-7-7-7--7-7---7-7-7-7-7-7|x2
|4-----------4-4-7-5-5--5-5-5-5-5-5-5-5-5|
|----------------------------------------|

prechorus
|-----------------------------------------------|
|-----------------------------------------------|
|-----------------------------------------------|
|6--6--6-6-6------------------------------------|
|4--4--4-4-4-6--6--6-6-6-7--7--7-7-7-2--2--2-2-2|
|------------4--4--4-4-4-5--5--5-5-5-0--0--0-0-0|

|-----------------------------------------------|
|-----------------------------------------------|
|-----------------------------------------------|
|6--6--6-6-6------------------------------------|
|4--4--4-4-4-6--6--6-6-6-9--9--9-9-9-9--9--9-9-9|
|------------4--4--4-4-4-7--7--7-7-7-7--7--7-7-7|

chorus
|---------------------------------------------------------------------------|
|---------------------------------------------------------------------------|
|---------------------------------------------------------------------------|
|9--9--9---9--9-9-9--------------------9--9--9---9--9-9-9-------------------|
|7--7--7---7--7-7-7-9--9--9---9--9-9-9-7--7--7---7--7-7-7-7--7--7---7--7-7-7|
|-------------------7--7--7---7--7-7-7--------------------5--5--5---5--5-5-5|

|-------------------------------------------------------------------------|
|-------------------------------------------------------------------------|
|-------------------------------------------------------------------------|
|9--9--9---9--9-9-9--------------------9--------8--9--9--9-9-9------------|
|7--7--7---7--7-7-7-9--9--9---9--9-9-9-7--9--11-6--7--7--7-7-7-9--9--9-9-9|
|-------------------7--7--7---7--7-7-7----7--9-----------------7--7--7-7-7|
the solo is pretty easy to work out. best of luck :)
Tap to rate this tab
# A B C D E F G H I J K L M N O P Q R S T U V W X Y Z