Song name
# A B C D E F G H I J K L M N O P Q R S T U V W X Y Z

The Acro-brats - Laughtrack tab

       
    laughtrack by the acro-brats
    tabed by:mp42p3/keith
    email:mp42p3@aol.com           tuning(EADGBe)
  introx2
e|------------------------------------------------------------------|
B|-------7----------------------7-----------------------------------|
G|---7-----7-7------7-9p7---7----7--7--7--9p7-7---------------------|
D|-----7----7--7h9-------9----7----7---------9----------------------|
A|------------------------------------------------------------------|
E|------------------------------------------------------------------|

main riffx4                 verse 1a
e|---after this 2nd time---|-----------------------|
B|-around-go2-vrs-2a-------|------7----------------|
G|---------------------7~7~|--7~---7-7-------------|
D|--0-7-9p7p0h7-0~-7p0-----|--7~-----7-----^2-0----|
A|-------------------------|--5~-----5^--------2---|
E|-------------------------|-----------------------|

verse 1bx2               x2first time                                       
e|------------------------|-----------------------------------------|
B|------------------------|-----------------------------------------|
G|------------------------|-----------------------------------------|
D|--7-7-7777-----x--------|-7-7-7777--------------------------------|
A|--5-5-5555--9-9---5-5---|-5-5-5555-777-9--7-----------------------|
E|------------7-7x--3-3---|----------555-7\-5-----------------------|

chorus
e|------------------------------------------------------------------|
B|-----------------7^7-5-----------------------------------back-to--|
G|------------7--7------7-6-6h7p6-4-4h6p4-----------------main-riff1|
D|-4-4-5-5----7--7-----------------------7-5-4-5-7-5-4---0----------|
A|-4-4-5-5--xx5xx5-------------------------------------7------------|
E|-2-2-3-3--xx-xx---------------------------------------------------|

verse 2a after main riff1 2nd time
e|------------------------------------------------------------------|
B|---------7-----------------------------------7/10-----------------|
G|--7~--3/7-7-7--7---7-7-7--7---------------------------------------|
D|--7`--------7--7-7-7-7-7--7---------------------------------------|
A|--5~--------5^(6-6-6-6-6)^5~---steadly-bend-----------------------|
E|-----------------------the-a-string-threw-6s----------------------|

verse 2b                                  x2
e|-------------------------------------------|
B|-------------------------------------------|
G|-------------------------------------------|
D|--7-7-7777-------------7-7-7777------------|
A|--5-5-5555-999--5-55---5-5-5555-777-9-7----|
E|-----------777--3-33------------555-7-5-5--|

chorus 2
e|------------------------------------------------------------------|
B|------------------7^7-5-------------------------5-7-7^7-----------|
G|------------------------7-6-6h7p6-4-4h6p4-4-6-7-------------------|
D|-------------7--7------------------------7------------------------|
A|--4-4-5-5----5--5-------------------------------------------------|
E|--2-2-3-3--xx-xx--------------------------------------------------|

intro riff
e|------------------------------------------------------------------------|
B|---7--------------7------------7-------------------------10-------------|
G|-7--7-7---7-9p7-7--7-779p7-7-7--7-7---7-9p7--9^9p7-7-9-9^--^9-7-7-------|
D|--7--7-7h9-----9-7--7-----9---7--7-7h9-----9------9------------9--------|
A|------------------------------------------------------------------------|
E|------------------------------------------------------------------------|

solo                                                                   x2
e|-------------------------------12p10------------------------------------|
B|-----10---10h12p10--10-----10-------12----10--10h12p10--10--10----------|
G|-/11----11--------11--11-11--11--------/11--11--------11--11--12-11-9-11|
D|------------------------------------------------------------------------|
A|------------------------------------------------------------------------|
E|------------------------------------------------------------------------|

verse 3
e|-----10~---------------14----12---10--------8-9--10---------------------|
B|-----------7--7^7-------------------------------------------------------|
G|-7----------7-------/14---/12--/11----------9-10-11---------------------|
D|-7----------------------------------------------------------------------|
A|-5----------------------------------------------------------------------|
E|------------------------------------------------------------------------|

chorus
e|------------------------------------------------------------------------|
B|--------------7^7-5------------------------5-7-8-10---------------------|
G|----------7--7------7-6-6h7p6-4-4h6p4-4-6-7-----------------------------|
D|-4-45-5---7--7-----------------------7----------------------------------|
A|-4-45-5-xx5xx5----------------------------------------------------------|
E|-2-23-3-xx-xx-----------------------------------------------------------|

outro                                                                       
e|----------------14~----------------14--141414141414141717171717171717---|
B|1515151515151515---1515151515151515--15151515151515151515151515151515-7~|
G|----------------------------------------------------------------------7~|
D|----------------------------------------------------------------------7~|
A|----------------------------------------------------------------------5~|
E|------------------------------------------------------------------------|

|^ bend half step
|x muffled string
|h hammer on
|p pull off
|/ slide up
|\slide down
|~ hold/ring note
Tap to rate this tab
# A B C D E F G H I J K L M N O P Q R S T U V W X Y Z