Song name
# A B C D E F G H I J K L M N O P Q R S T U V W X Y Z

The Adolescents - Amoeba tab

intro[guitar 1]
1x       3x                              1x
--------]-------------------------------]--------------------------------------|
--------]-------------------------------]--------------------------------------|
-12-12--]--9-9-9-9-9-9-9-11-11-11-12-12-]-9-9-9-9-9-9-8-8-8-8-8-8-8-8----------|
--x--x--]--x-x-x-x-x-x-x--x--x--x--x--x-]-x-x-x-x-x-x-x-x-x-x-x-x-x-x----------|
-10-10--]--7-7-7-7-7-7-7-11-11-11-12-12-]-9-9-9-9-9-9-8-8-8-8-8-8-8-8----------|
--------]-------------------------------]--------------------------------------|

intro[guitar 2]
----7---5----8----7------10-10--------------------------------------|
----8---5----8----7------10-10--------------------------------------|
----9---7----9----9------12-12--------------------------------------|
----9---7---10----7------12-12--------------------------------------|
----7---5---10----9------10-10--------------------------------------|
-------------8----7-------------------------------------------------|

verse
---7-----5----4------------------------------------------------------|
---7-----5----4------------------------------------------------------|
---8-----6----5------------------------------------------------------|
---9-----7----6------------------------------------------------------|
---9-----7----6------------------------------------------------------|
---7-----5----4------------------------------------------------------|
    p.m
solo 1
-----------------------------------------------------|
-----------------------------------------------------|
-999999-1111111111111-121212121212-141414141414-1616-|
-xxxxxx-xxxxxxxxxxxxx-xxxxxxxxxxxx-xxxxxxxxxxxx-xxxx-|
-777777-9-9-9-9-9-9-9-101010101010-121212121212-1414-|
-----------------------------------------------------|

--------------------------------------------------|
--------------------------------------------------|
-1414-12-14-12-10-12-10-9-7-9---------------------|
-xxxx-xx-xx-xx-xx-xx-xx-x-x-x---------------------|
-1212-10-12-10--9-10-9--7-5-7---------------------|
--------------------------------------------------|


-15-14-12--12-14-15-14-12--12-15p12--12--------------------12-14-12--12--14-15-14-12--|
---------15--------------15--------15--15-12--14-15--14-15---------15-----------------|
--------------------------------------------------------------------------------------|
--------------------------------------------------------------------------------------|
--------------------------------------------------------------------------------------|
--------------------------------------------------------------------------------------|


---12--------------15p12--12----------------------------------------------------|
-15--15-14-12-15b-------15------------------------------------------------------|
-----------------------------14p12-14p12-14p12-14p12-14p12----------------------|
----------------------------------------------------------14p12-----------------|
---------------------------------------------------------------14p12------------|
--------------------------------------------------------------------12slide-----|

breakdown
----------------------------------------------------|
----------------------------------------------------|
---------9-9-9---------9-9--------------------------|
-----7-7-9-9-9-6-6-7-7-9-9---7-7-7-7-7-7-7-7--------|
-----7-7-7-7-7-6-6-7-7-7-7---7-7-7-7-7-7-7-7--------|
-----5-5-------4-4-5-5-------5-5-5-5-5-5-5-5--------|
                            [----pm-----------------|
solo 2
-------------------------------------------------------------15brp12---------|
-12-12-12-12-12---------------------------------------15brp12----------------|
-14b14b14b14b14b--14b-14-12--------12----12-14-14brp12-----------------------|
---------------------------14-12-14---14-------------------------------------|
-----------------------------------------------------------------------------|
-----------------------------------------------------------------------------|

-14-12-----------------------------------|
------15-14-12-15b15b15b15brp12----------|
--------------------------------14b------|
-----------------------------------------|
-----------------------------------------|
-----------------------------------------|

vibrato
----------------------------------------|
----------------------------------------|
----------------------------------------|
----------------------------------------|
----------------------------------------|
-3--5--7--9--11--13--15--17--19--21--23-|

outro[same as intro but guitar 1 plays:]
1x       3x                              1x
--------]-------------------------------]--------------------------------------|
--------]-------------------------------]--------------------------------------|
-12-12--]-9-9-9-7-9-9-9-7-9-9-9-7-9-9-9-]-9-9-9-9-9-9-8-8-8-8-8-8-8-8----------|
--x--x--]-x-x-x-x-x-x-x-x-x-x-x-x-x-x-x-]-x-x-x-x-x-x-x-x-x-x-x-x-x-x----------|
-10-10--]-7-7-7-5-7-7-7-5-7-7-7-5-7-7-7-]-9-9-9-9-9-9-8-8-8-8-8-8-8-8----------|
--------]-------------------------------]--------------------------------------|
Tap to rate this tab
 
# A B C D E F G H I J K L M N O P Q R S T U V W X Y Z