Song name
# A B C D E F G H I J K L M N O P Q R S T U V W X Y Z

The Advantage - Blastermaster - Stage 2 tab

The Advantage - Blastermaster - Stage 2
The Advantage (2004)
Tabbed By ruker (Varuker@gmail.com)
Standard Tuning EADGBE

--------------
Key:
--------------
.   Palm Mute
~   Vibrato
h   Hammer-On
p   Pull-Off
/   Slide Up
\   Slide Down
--------------

Left Guitar - Upper
Right Guitar - Lower


||-----------------------------------------------------------------------||
||*---------------------------------------------------------------------*||
||-----------------------------------------------------------------------||
||------------------------10-9-------------------------------------------||
||*-12---12-12---12-10-12-------12-10-12---12-12---12-------10-------10-*||
||----------------------------------------------------10h12----10h12-----||
|                                                                         |
|                                                                         |
||-----------------------------------------------------------------------||
||*-----------------------13-12-----------------------------------------*||
||--14---14-14---14-12-14-------14-12-14---14-14---14-------12-------12--||
||----------------------------------------------------12h14----12h14-----||
||*---------------------------------------------------------------------*||
||-----------------------------------------------------------------------||



||-----------------------------------------------------------------------------------------|
||*-10-----------10------------------------------------------------------------------------|
||------------9-------12------12-11-9-------9----------10-------10-------12-------12-------|
||-------------------------------------12-----------------10-------10-------12-------12----|
||*----------------------------------------------------------12-------12-------14-------14-|
||-----------------------------------------------------------------------------------------|
|                                                                                          |
|                                                                                          |
||-----------------------------------------------------------------------------------------|
||*----------------------------------------------------------------------------------------|
||-----------------------------------------------------10-------10-------12-------12-------|
||--11-----------11---9-------9--11-11-9----11------------10-------10-------12-------12----|
||*----------------------------------------------------------12-------12-------14-------14-|
||-----------------------------------------------------------------------------------------|



|----------------------------------------------------------------------------------------|
|-10-----------10------------------------------------------------------------------------|
|-----------9-------12------12-11-9-------9----------10-------10-------12-------12-------|
|------------------------------------12-----------------10-------10-------12-------12----|
|----------------------------------------------------------12-------12-------14-------14-|
|----------------------------------------------------------------------------------------|
|                                                                                        |
|                                                                                        |
|----------------------------------------------------------------------------------------|
|----------------------------------------------------------------------------------------|
|----------------------------------------------------10-------10-------12-------12-------|
|-11-----------11---9-------9--11-11-9----11------------10-------10-------12-------12----|
|----------------------------------------------------------12-------12-------14-------14-|
|----------------------------------------------------------------------------------------|



|-------------------------------------------------------------------------------|
|-------------------------------------------------------------------------------|
|-9------------9----10----------10---12----------12---10-----10---9-------------|
|-------------------------------------------------------------------------------|
|-------------------------------------------------------------------------------|
|-------------------------------------------------------------------------------|
|                                                                               |
|                                                                               |
|-------------------------------------------------------------------------------|
|-------------------------------------------------------------------------------|
|-------------------------------------------------------------------------------|
|------------------------------------9-----------9------------------------------|
|-11-----------11---12----------12--------------------12-----12---11------------|
|-------------------------------------------------------------------------------|



|---------------------------------------------------------------------------------||
|-----------------------------------------------------9--------9--9--9--9--9--9--*||
|-9------------9----10----------10---12----------12-------------------------------||
|---------------------------------------------------------------------------------||
|--------------------------------------------------------------------------------*||
|---------------------------------------------------------------------------------||
|                                                                                  |
|                                                                                  |
|---------------------------------------------------------------------------------||
|--------------------------------------------------------------------------------*||
|---------------------------------------------------------------------------------||
|------------------------------------9-----------9----10-------10-10-10-10-10-10--||
|-11-----------11---12----------12-----------------------------------------------*||
|---------------------------------------------------------------------------------||



||-12------------||
||---------------||
||---------------||
||---------------||
||---------------||
||---------------||
|                 |
|                 |
||---------------||
||---------------||
||---------------||
||---------------||
||---------------||
||---------------||
Tap to rate this tab
 
# A B C D E F G H I J K L M N O P Q R S T U V W X Y Z