Guitaretab - guitar tabs
Song name
# A B C D E F G H I J K L M N O P Q R S T U V W X Y Z

The Adverts - Newboys tab

http://www.comnet.ca/~rina/adverts.html


Band: Adverts
Song: Newboys


tabbed by jam9383@yahoo.com


Pre-Verse

          x2\/
e------------------------------|---------------------------------------|
B------------------------------|---------------------------------------|
G---9--9---7--6---4-4-4-4-4-4--|--4-4-4-4-4-4-4-4-4-4-4----------------|
D--10-10---8--7---5-5-5-5-5-5--|--3-3-3-3-3-3-3-3-3-3-3----------------|
A--10-10---8--7---5-5-5-5-5-5--|--3-3-3-3-3-3-3-3-3-3-3----------------|
E---8--8---6--5---3-3-3-3-3-3--|--1-1-1-1-1-1-1-1-1-1-1----------------|

Verse

e---------------------------------------------------------------------|
B---------------------------------------------------------------------|
G--6-6-6-6--9--9--9--9---6-6-6-6-9--9--9--9---------------------------|
D--7-7-7-7--10-10-10-10--7-7-7-7-10-10-10-10--------------------------|
A--7-7-7-7--10-10-10-10--7-7-7-7-10-10-10-10--------------------------|
E--5-5-5-5--8--8--8--8---5-5-5-5-8--8--8--8---------------------------|

Bridge
[ Tab from: http://www.guitaretab.com/t/the-adverts/61342.html ]
e---------------------------------------------------------------------|
B--7---7---7---7---7----7---------------------------------------------|
G--7---7---7---7---7----7----6----6----6----6----6-----6--------------|
D--7---7---7---7---7----7----7----7----7----7----7-----7--------------|
A--5---5---5---5---5----5----7----7----7----7----7-----7--------------|
E----------------------------5----5----5----5----5-----5--------------|

e--10-10-10-10-10---13-13-13-12-13--10-10-10-10-10--13-13-13-12-13----|
B--10-10-10-10-10---13-13-13-12-13--10-10-10-10-10--13-13-13-12-13----|
G---------------------------------------------------------------------|
D---------------------------------------------------------------------|
A---------------------------------------------------------------------|
E---------------------------------------------------------------------|

e-----13--------13----13----13----------------------------------------|
B--------11-13--16b---16b---16b---------------------------------------|
G---------------------------------------------------------------------|
D---------------------------------------------------------------------|
A---------------------------------------------------------------------|
E---------------------------------------------------------------------|

any comments/corrections needed contact me, please rate
Related for Newboys tab