Song name
# A B C D E F G H I J K L M N O P Q R S T U V W X Y Z

The Afters - Myspace Girl tab

-------------------------------------------------------------------------------
			     Myspace Girl - The Afters
-------------------------------------------------------------------------------
Tabbed by: Ryan T.
Email: acegamer_2005@hotmail.com

Tuning: Standard

I am pretty sure this is correct. Not entirely though, I tabbed it while on a break
because I noticed there doesn't seem to be a good tab out there for this song.

e|-------------------------------|
B|-------------------------------|
G|------33-44--6\3-------33-44---|
D|-4----33-44--6\3222----33-44---|
A|-4----11-22--4\1222----11-22---|
E|-2--------------444------------| x4

e|------------------------------------|
B|------------------------------------|
G|------33-44--6\3--------------------|
D|-4----33-44--6\3--------------------|
A|-4----11-22--4\1--------1h2-44444444|
E|-2--------------2p1-2-4-------------|

e|----------------------|
B|----------------------|
G|----------------------|
D|-9--94--4-11-11-11-11-|
A|-9--74--4-11-11-11-11-|
E|-7--72--2-9--9--9--9--| x2

e|---------------------------------------------|
B|---------------------------------------------|
G|---------------------------------------------|
D|-9-9-11-11--13-13-13-13-13-13-13-13-888888-9-|
A|-9-9-11-11--11-11-11-11-11-11-11-11-888888-9-|
E|-7-7-9--9---11-11-11-11-11-11-11-11-666666-7-|

e|-------------------------------|
B|-------------------------------|
G|------33-44--6\3-------33-44---|
D|-4----33-44--6\3222----33-44---|
A|-4----11-22--4\1222----11-22---|
E|-2--------------444------------| x4

e|------------------------------------|
B|------------------------------------|
G|------33-44--6\3--------------------|
D|-4----33-44--6\3--------------------|
A|-4----11-22--4\1--------1h2-44444444|
E|-2--------------2p1-2-4-------------|

e|----------------------|
B|----------------------|
G|----------------------|
D|-9--94--4-11-11-11-11-|
A|-9--74--4-11-11-11-11-|
E|-7--72--2-9--9--9--9--| x2

e|----------------------------------------------------|
B|----------------------------------------------------|
G|----------------------------------------------------|
D|-99-11-11--13-13-13-13-13-13-13-13-8888888899999999-|
A|-99-11-11--11-11-11-11-11-11-11-11-8888888899999999-|
E|-77-9--9---11-11-11-11-11-11-11-11-6666666677777777-|

Play after the piano is finished:
e|-----------------------------------|
B|-----------------------------------|
G|------33-44--6\3-------33-44444444-|
D|-4----33-44--6\3222----33-44222222-|
A|-4----11-22--4\1222----11-22222222-|
E|-2--------------444----------------|

e|---------------------------------------|
B|---------------------------------------|
G|-11-11-11-8-8-8------------------------|
D|----------------11-11-11-8-8-8--6--6--4|
A|-9--9--9--6-6-6-----------------------4|
E|----------------9--9--9--6-6-6--4--4--2|


Listen to get timing right
e|-------|
B|-77--7-|
G|-44--4-|
D|-------|
A|-------|
E|-------| x2

e|-----------------------------------------------------------|
B|-----------------------------------------------------------|
G|-----------------------------------------------------------|
D|-9999-11-11-11-11-13-13-13-13-13-13-13-13-8888888899999999-|
A|-9999-11-11-11-11-11-11-11-11-11-11-11-11-8888888899999999-|
E|-7777-9--9--9--9--11-11-11-11-11-11-11-11-6666666677777777-|

e|----------------------|
B|----------------------|
G|----------------------|
D|-9--94--4-11-11-11-11-|
A|-9--74--4-11-11-11-11-|
E|-7--72--2-9--9--9--9--| x2

e|-----------------------------------------------------------|
B|-----------------------------------------------------------|
G|-----------------------------------------------------------|
D|-9999-11-11-11-11-13-13-13-13-13-13-13-13-8888888899999999-|
A|-9999-11-11-11-11-11-11-11-11-11-11-11-11-8888888899999999-|
E|-7777-9--9--9--9--11-11-11-11-11-11-11-11-6666666677777777-|

e|-----------------------------|
B|-----------------------------|
G|------33-44--6\3-------33-44-|
D|-4----33-44--6\3222----33-44-|
A|-4----11-22--4\1222----11-22-|
E|-2--------------444----------|



| /  slide up
| \  slide down
| h  hammer-on
| p  pull-off
| ~  vibrato
| +  harmonic
| x  Mute note
===============================================================================
Tap to rate this tab
# A B C D E F G H I J K L M N O P Q R S T U V W X Y Z