Song name
# A B C D E F G H I J K L M N O P Q R S T U V W X Y Z

The Afters - Beautiful Smile tab

Help us improve GuitareTab! Take a short survey!
-------------------------------------------------------------------------------
			    BEAUTIFUL SMILE - THE AFTERS
-------------------------------------------------------------------------------
Tabbed by: Lukang

Tuning: Standard

e|---------------------------------------------------------------------------|
B|---------------------------------------------------------------------------|
G|--4---3---4---3---4---3---4---3---4---3---4---3---4---3---4---3------------|
D|--X-------------------------------X----------------------------------------|
A|--2-------------------------------4----------------------------------------|
E|---------------------------------------------------------------------------|


e|---------------------------------------------------------------------------|
B|---------------------------------------------------------------------------|
G|--4---3---4---3---4---3---4---3---4---3---4---3---4---3---4---3------------|
D|--X-------------------------------X----------------------------------------|
A|--X-------------------------------X----------------------------------------|
E|--4-------------------------------4----------------------------------------|


e|---------------------------------------------------------------------------|
B|--12--11--12--11--12--11--12--11--12--11--12--11--12--11--12--11-----------|
G|---------------------------------------------------------------------------|
D|---------------------------------------------------------------------------|
A|---------------------------------------------------------------------------|
E|---------------------------------------------------------------------------|


e|---------------------------------14--------|
B|--12--11--12--12/14--12--11--12--14--------|
G|-------------------------------------------|
D|-------------------------------------------|
A|-------------------------------------------|
E|-------------------------------------------| 2x


B     C#    G#m       G#m
Far away, I feel your beating heart
B     C#     G#m               G#m
All alone, beneath the crystal stars
Eadd9         G#m   G#m                 Eadd9
Staring into space, what a lonely face
                    G#m        G#m
I'll try to find my place with you


[chorus]
       C#m       G#m
What a beautiful smile
      B        F#
Can I stay for awhile?
        C#m       G#m
On this beautiful night
           B          F#
We'll make everything right
             C#m     G#m
My beautiful love, 
             B       F#
my beautiful love


Larger than the moon, my love for you
Worlds collide as heaven pulls us through
The secret of the world is written in the stars
I'm carrying your heart in mine

[chorus]

Maybe a greater thing will happen
Maybe all will see
Maybe our love will catch like fire
As it burns through me
[3x]

[chorus]
[2x]

My beautiful love
La la la la love
La la la la love

My beautiful
La la la la love
La la la la love

My beautiful love



Related for Beautiful Smile tab