Song name
# A B C D E F G H I J K L M N O P Q R S T U V W X Y Z

The Afters - Beautiful Love tab

Highlighted       Show chord diagrams
tabbed by: wholeoh






Capo 3rd fret 



Chords: (All chords are dependent on capo)

     G      Dsus/G    Em7    Cadd9    Am       D
  E|--3---|---3----|---3--|--------|-------|--2----|
  A|--3---|---3----|---3--|----3---|--1----|---3---|
  D|------|--2-----|------|--------|---2---|--2----|
  G|------|--------|--2---|---2----|---2---|-------|
  B|-2----|--------|--2---|----3---|-------|-------|
  E|--3---|---3----|------|--------|-------|-------|




      D* (this is what you have to play and strum) 

D= Down stroke U= Up stroke

       D    U    D    U    D    U    D
  E|---0----0----2----2----3----3----3--------------|
  A|---3----3----3----3----3----3----3--------------|
  D|---2----2----2----2----2----2----2--------------|
  G|-----------------------------------------------|
  B|-----------------------------------------------|
  E|-----------------------------------------------|






Intro: G, Dsus/G, Em7 (X2)


G    Dsus/G   Em7
Faraway...I feel your beating heart 

G     Dsus/G
All Alone 

Em7
Beneath the crystal stars 

Cadd9         Em7
Staring into space

              Cadd9
What a lonely face 

                    Em7         D*
I'll try to find my place with you 


       Am         Em
What a beautiful smile 

      G          D
Can I stay for awhile? 

        Am        Em
On this beautiful night 

           G          D
We'll make everything right

              Am                   G
My beautiful loooove, My beautiful love 



Intro (X2)



G      Dsus/G   Em7
Larger than the moon - my love for you 

G         Dsus/G    Em7
Worlds collide as heaven pulls us through 


Cadd9             Em7                     Cadd9
The Secret of our world is written in the stars

                  Em7      D*
I'm carrying your heart in mine 


       Am         Em
What a beautiful smile

      G         D      
Can I stay for awhile?

        Am        Em 
On this beautiful night

           G          D 
We'll make everything right

             Am       G        Dsus/G       Em7 
My beautiful love 

             Am       G        Dsus/G       Em7


        Am                    Em
Maybe a greater thing will happen 

      G        Dsus/G
Maybe all will see

          Am                    Em
Maybe our love will catch like fire 

      G             Dsus/G
As it burns through me 
(2x) 

       Am        Em
What a beautiful smile

      G         Dsus/G
Can I stay for awhile? 

        Am        Em
On this beautiful night

           G          Dsus/G
We'll make everything right



My beautiful 
Am          Em
La-la-la-la-love

G           Dsus/G
La-la-la-la-love

My beautiful
Am          Em 
La-la-la-la-love

G           Dsus/G
La-la-la-la-love

             Am      Em
My beautiful love
Tap to rate this tab
# A B C D E F G H I J K L M N O P Q R S T U V W X Y Z