Song name
# A B C D E F G H I J K L M N O P Q R S T U V W X Y Z

The Afters - Tonight tab

-------------------------------------------------------------------------------
			     Tonight - The Afters
-------------------------------------------------------------------------------
Tabbed by:Yazawo
Email:MDLovitt@hotmail.com

I know the band only has two guitarists but they recorded three

Tuning:
Guitar I: Standard
Guitar II: Standard
Guitar III: Standard

Intro 0:0-0:14
Guitar I 0:00-0:14
    0:01      0:02      0:03  0:04 0:05
e|---------------------------------------------------------------------------|
B|---------------------------------------------------------------------------|
G|--11-11/13--13-13/10--10-10/11-11-x-x--------------------------------------|X4
D|---x--x--x---x--x--x---x--x--x--x-x-x--------------------------------------|
A|---9--9--11--11-11-8---8--8--9--9-x-x--------------------------------------|
E|---------------------------------------------------------------------------|
Guitar II 0:00-0:14
   Same timing as Guitar I
e|---------------------------------------------------------------------------|
B|---------------------------------------------------------------------------|
G|---------------------------------------------------------------------------|X4
D|---------------------------------------------------------------------------|
A|--6-6/8-8-8/1-1-1/6--------------------------------------------------------|
E|---------------------------------------------------------------------------|
Guitar III 0:08-0:14

e|---------------------------------------------------------------------------|
B|---------------------------------------------------------------------------|
G|--pb8-6-8-10^-10-6-----6-pb8-8^-8^-8^--------------------------------------|X2
D|-------------------8-8-----------------------------------------------------|
A|---------------------------------------------------------------------------|
E|---------------------------------------------------------------------------|

Verse 0:14-0:44
Guitar I 0:14-0:44
    0:15   0:19   0:21   0:22   0:23   0:24.5  0:26
e|---------------------------------------------------------------------------|
B|---------------------------------------------------------------------------|
G|---11-----10------8------6------11-----15-----10---------------------------| X2
D|----x-X16--x-X8---x-X8---x-X4----x-X4---x-X8---x-X8------------------------|
A|----9------8------6------4-------9-----13------8---------------------------|
E|---------------------------------------------------------------------------|
Guitar II 0:15-0:44
   0:15  0:17  0:19  0:21  0:23  0:25  0:27
e|---------------------------------------------------------------------------|
B|---------------------------------------------------------------------------|
G|---------------------------------------------------------------------------| X2
D|---------------------------------------------------------------------------|
A|--6-X8--5-X8--4-X8--2-X8--6-X8--9-X8--4X8----------------------------------|
E|---------------------------------------------------------------------------|

Chorus 0:44-1:00
I know it doesnt look right but trust me the major changes in sound are the bass not the 
And i spaces the notes like so to give you an idea on the strumming

Guitar I 0:44-1:00
    0:44             0:48.5 0:50
e|---------------------------------------------------------------------------|
B|---------------------------------------------------------------------------|
G|--6-6-66-6-66-6666-8-8-88-10-1010-10101010-------End-----------------------| X2
D|--6-6-66-6-66-6666-8-8-88-10-1010-10101010-------------6-------------------|
A|--4-4-44-4-44-4444-6-6-66--8--8-8--8-8-8-8-------------6-------------------|
E|-------------------------------------------------------4-------------------|

Verse 1:03-1:10
Guitar I 1:03-1:10
    1:03      1:04      1:05  1:06
e|---------------------------------------------------------------------------|
B|---------------------------------------------------------------------------|
G|--11-11/13--13-13/10--10-10/11-11-x-x--------------------------------------|X2
D|---x--x--x---x--x--x---x--x--x--x-x-x--------------------------------------|
A|---9--9--11--11-11-8---8--8--9--9-x-x--------------------------------------|
E|---------------------------------------------------------------------------|

Verse II 1:10-1:40
Guitar I 1:10-1:40(Palm Muted)
    1:10 1:14  1:16  1:18  1:20  1:22
e|---------------------------------------------------------------------------|
B|---------------------------------------------------------------------------|
G|--11-----15-----8----11----15----10----------------------------------------| X2
D|---x-X16--x-X8--x-X8--x-X8--x-X8--x-X8-------------------------------------|
A|---9-----13-----6-----9----13-----8----------------------------------------|
E|---------------------------------------------------------------------------|

Guitar II 1:10-1:40
Same Timing as Guitar I
e|---------------------------------------------------------------------------|
B|---------------------------------------------------------------------------|
G|---------------------------------------------------------------------------| X2
D|---------------------------------------------------------------------------|
A|--6-X8--5-X8--4-X8--2-X8--6-X8--9-X8--4X8----------------------------------|
E|---------------------------------------------------------------------------|

Verse III 2:06-2:23
Guitar I 2:06-2:23

e|---------------------------------------------------------------------------|
B|---------------------------------------------------------------------------|
G|---------------------------------------------------------------------------|X8
D|----------8-6-6-6----------------------------------------------------------|
A|---6-6-6----------5-6-6-6-----last one-6-6-6-6^(7)r6-----------------------|
E|---------------------------------------------------------------------------|

Guitar II (Palm Muted)2:06-2:23
   2:06  2:08  2:10 2:11.5 2:13  2:15  2:17  2:19
e|---------------------------------------------------------------------------|
B|---------------------------------------------------------------------------|
G|--15----10----11----13----15----18----19----21^----------------------------|
D|---x-X8--x-X8--x-X8--x-X8--x-X8--x-X8--x-X8--x-X8--------------------------|
A|--13-----8-----9----11----13----15----17----19^----------------------------|
E|---------------------------------------------------------------------------|

Breakdown 2:23-2:38
Guitar I (palm muted) not to sure about this one
   2:23  2:25  2:27 2:29
e|---------------------------------------------------------------------------|
B|---------------------------------------------------------------------------|
G|---------------------------------------------------------------------------|X2
D|--6-----4-----2-----4------------------------------------------------------|
A|--6-X8--4-X8--2-X8--4-X8---------------------------------------------------|
E|--4-----2-----0-----2------------------------------------------------------|
Guitar II (weird effect) 2:27-2:38
And Im just guessing here
     2:27
e|---------------------------------------------------------------------------|
B|---------------------------------------------------------------------------|
G|---------------------------------------------------------------------------|X2
D|-11-11-10-10-7-9-9-7-9-9-7-9-9-7-9-9-9-9-9-9-9-----------------------------|
A|---------------------------------------------------------------------------|
E|---------------------------------------------------------------------------|

Chorus II 2:38-2:52
Guitar I
e|---------------------------------------------------------------------------|
B|---------------------------------------------------------------------------|
G|--6-6-66-6-66-6666-8-8-88-10-1010-10101010-------End-----------------------| X2
D|--6-6-66-6-66-6666-8-8-88-10-1010-10101010-------------6-------------------|
A|--4-4-44-4-44-4444-6-6-66--8--8-8--8-8-8-8-------------6-------------------|
E|-------------------------------------------------------4-------------------|

Guitar I 2:53-3:01
  2:53  2:55
e|---------------------------------------------------------------------------|
B|---------------------------------------------------------------------------|
G|---------------------------------------------------------------------------|X2
D|--6----9-------------------------------------------------------------------|
A|--6-X8-9-X8----------------------------------------------------------------|
E|--4----9-------------------------------------------------------------------|

Outro-Repeat Intro

And thats it. Hope it helped. If you see a correction please show it to me id like it to 
as correct as possible, but keep in ming the Bass is the thing that changes the sound 
the chorus...not the guitar. I know it threw me for a loop too.

Oh and i dont know if this song has a Bass Tab but I might do one if this gets enough attention.

Peace


************************************

| /   slide up
| \   slide down
| h   hammer-on
| p   pull-off
| ~   vibrato
| +   harmonic
| x   Mute note
| ^   Bend
| pb  Pre-bend
| br  Bend release
| pbr Pre-bend release
| brb Bend release bend

************************************
Tap to rate this tab
 
# A B C D E F G H I J K L M N O P Q R S T U V W X Y Z