Song name
# A B C D E F G H I J K L M N O P Q R S T U V W X Y Z

The Afters - Light Up The Sky tab

Well I couldn't find an exact tab of this song so I made this.
It's a very good song and i'm planning to introduce it to my church.
I hope you like it and find it useful. :)


Song: Light Up The Sky
Band: The Afters
Tuning: EBGDAE (Standard)

~ = Let Ring


~Verse 1~  (Play until Chorus)
e|---------------------------------------------------------------------------|
B|---------------------------------------------------------------------------|
G|---------------------------------------------------------------------------|
D|--10------(X4)-------8------(X4)-------------------------------------------|
A|-----11----------------11--------------------------------------------------|
E|---------------------------------------------------------------------------|
~Chorus~
e|---------------------------------------------------------------------------|
B|---------------------------------------------------------------------------|
G|-------------------6~~-----------------------------------------------------|
D|--8~~-----4~~------6~~------6~~--------------------------------------------|
A|--8~~-----4~~------4~~------6~~--------------------------------------------|
E|--6~~-----2~~---------------4~~--------------------------------------------|
~Verse 2~ (Repeat Verse 1 until Chorus)
e|---------------------------------------------------------------------------|
B|---------------------------------------------------------------------------|
G|---------------------------------------------------------------------------|
D|---------------------------------------------------------------------------|
A|---------------------------------------------------------------------------|
E|---------------------------------------------------------------------------|
~Bridge~ (I reccomend downstrokes for easier rhythm)
e|---------------------------------------------------------------------------|
B|--11--(X8)----------------13--(X4)-----11--(X8)----14--(X5)----------------|
G|--------------10--(X4)-----------------------------------------------------|
D|---------------------------------------------------------------------------|
A|---------------------------------------------------------------------------|
E|---------------------------------------------------------------------------|
~Chorus~ (Play throughout the rest of the song, end on third chord below
          and let ring)
e|---------------------------------------------------------------------------|
B|---------------------------------------------------------------------------|
G|-----------6~~-------------------------------------------------------------|
D|--4~~------6~~------6~~------8~~-------------------------------------------|
A|--4~~------4~~------6~~------8~~-------------------------------------------|
E|--2~~---------------4~~------6~~-------------------------------------------|
Tap to rate this tab
 
# A B C D E F G H I J K L M N O P Q R S T U V W X Y Z