Song name
# A B C D E F G H I J K L M N O P Q R S T U V W X Y Z

The Afters - Until The World tab

The Afters 
Until The World
Transcribed by Soch Hean


Tuning: Half Step Down (Eb Ab Db Gb Bb Eb)


Intro:
|-4-4-4-4-4-4-4-4-5-5-5-5-5-5-5-5---|
|-5-5-5-5-5-5-5-5-5-5-5-5-5-5-5-5---|
|-4-4-4-4-4-4-4-4-4-4-4-4-4-4-4-4---|
|-----------------------------------|
|-----------------------------------|
|-----------------------------------| 

|-4-4-4-4-4-4-4-4-5-5-5-5-5-5-5-5-4-|
|-5-5-5-5-5-5-5-5-5-5-5-5-5-5-5-5-5-|
|-4-4-4-4-4-4-4-4-4-4-4-4-4-4-4-4-4-|
|-----------------------------------|
|-----------------------------------|
|-----------------------------------|

Acoustic Riff: (Play during verses)
|------------------------------------|
|------------------------------------|
|---1-----1---------1-----1----------|
|-----2-----2---2-----2-----2---2----|
|-------2-----2---0-----0-----0------|
|-0----------------------------------| (Repeat)


Verse:
E                 A          
I lose myself to find in me
     E             A
The way it really ought to be
      E             A
It's hard to say I love you
      E             A
It's hard to say I need you

If all is well...
|---------7---------------------12-----------|
|-----7-----7---7---------12-------12----12--|
|-8h9---9-----9--------13----13-------13-----|
|-------------------14-----------------------|
|--------------------------------------------|
|--------------------------------------------|

E                    A
If all is well it's hard to tell
    E                   A
It hurts to think of someone else
      E               A
It's hard to say I'll be there
      E              A
It's hard to say I really, really care

Riff:
|-----------------------------------------------------16-16-16--14-14-14--12-12-12-|
|-2-2-2-2--4--5--7--9--10---2-2-2-2--4--5--7--9--10---17-17-17--16-16-16--12-12-12-|
|-2-2-2-2--4--6--8--9--11---2-2-2-2--4--6--8--9--11--------------------------------|
|----------------------------------------------------------------------------------|
|----------------------------------------------------------------------------------|
|----------------------------------------------------------------------------------|


Chorus:
            A          B
Until the world won't turn
              E    A
'Till the planets burn
         A         B        C#m
'Til the sun dies I'll be there
           A      B
'Til the heavens come
           E       A
'Til this life is done
            A         B       E
Until the world dies I'll be there

|---------------------------------------------|
|------------------------10-10-10-10-10-10-10-|
|------------------------9--9--9--9--9--9--9--|
|----9-9-9-9-9-9-9-9-9---9--9--9--9--9--9--9--|
|----7-7-7-7-7-7-7-7-7------------------------|
|---------------------------------------------|  (x2)
P.M.|-----------------|


Verse 2:
E                A
I can't see outside myself
     E                A
How can I live for someone else
      E               A
It's hard to say I'm sorry
      E              A
It's hard to say forgive me
    E                    A
I can't believe you're here with me
E               A
Into the future I can't see
      E             A
It's hard to say forever
       E               A
It's hard to say I'll never ever go

Riff:
|-----------------------------------------------------16-16-16--14-14-14--12-12-12-|
|-2-2-2-2--4--5--7--9--10---2-2-2-2--4--5--7--9--10---17-17-17--16-16-16--12-12-12-|
|-2-2-2-2--4--6--8--9--11---2-2-2-2--4--6--8--9--11--------------------------------|
|----------------------------------------------------------------------------------|
|----------------------------------------------------------------------------------|
|----------------------------------------------------------------------------------|


[Chorus]


Riff:
|--------------------------------------------------------------|
|--------------------------------------------------------------|
|--------------------------------------------------------------|
|---------6-6--4--7--6-6-6-6-----------6-6--4--7--6-6-6-6------|
|-4-4-7-7--------------------4-4-4-7-7--------------------4----|
|--------------------------------------------------------------| (x3)

|--------------------------------------------------------------|
|--------------------------------------------------------------|
|--------------------------------------------------------------|
|---------6-6--4--7--6-6-6-6-----------6-6--4--7--6-6-6-6-6----|
|-4-4-7-7--------------------4-4-4-7-7-------------------------|
|--------------------------------------------------------------|


[Chorus] (Slow Acoustic)
|---------0---------------0---------------0---------------0---------------------|
|-----0-----0---0-----0-----0---0-----0-----0---0-----0-----0---0---------------|
|-------------------------------------------------------------------------------|
|---2---2-----2-----4---4-----4-----2---2-----2-----2---2-----2-----------------|
|-0---------------2-------------------------------0-----------------------------|
|---------------------------------0---------------------------------------------|

|---------0----------------0-0-------------0---------------0--------------------|
|-----0-----0---0------0---0-0---0-----0-----0---0-----0-----0---0--------------|
|-------------------------------------------------------------------------------|
|---2---2-----2------4---4-----4-----6---6-----6-----6---6-----6----------------|
|-0----------------2---------------4---------------4----------------------------|
|-------------------------------------------------------------------------------|

|---------0---------------0---------------0---------------0---------------------|
|-----0-----0---0-----0-----0---0-----0-----0---0-----0-----0---0---------------|
|-------------------------------------------------------------------------------|
|---2---2-----2-----4---4-----4-----2---2-----2-----2---2-----2-----------------|
|-0---------------2-------------------------------0-----------------------------|
|---------------------------------0---------------------------------------------|

|---------0----------------0---------------0---------------0--------------------|
|-----0-----0---0------0-----0---0-----0-----0---0-----0-----0---0--------------|
|-------------------------------------------------------------------------------|
|---2---2-----2------4---4-----4-----6---6-----6-----6---6-----6----------------|
|-0----------------2---------------4---------------4----------------------------|
|-------------------------------------------------------------------------------|


[Chorus]

Outro Chords: A  B  E  A     B    E
              
Tap to rate this tab
 
# A B C D E F G H I J K L M N O P Q R S T U V W X Y Z