Song name
# A B C D E F G H I J K L M N O P Q R S T U V W X Y Z

The Afterthought - Were Alright tab

Artist Videos: http://www.youtube.com/user/TheAfterThought1
===================================================================

Em: 022033
 C: 032033
D1: 200233
D : 000232
D2: 000233

Capo 0
===================================================================
                       The Afterthought
                         We're Alright
===================================================================
.:Intro:.
e:-------3--------------3--------3---------3----------3-----------|
B:-----3-------3------3--------3--------3----------3--------------|
G:---0-------0------0--------0--------0---------0-----------------|
D:----------------------------------------------------------------|
A:-3-------2-----0---------2--------3--------2-----------0--------|
E:----------------------------------------------------------------|


.:Verse:.
Everything  you  say  is  so fine //
Baby you got me going nuts
e:-------3-------------3-------3--------------------3----------3--|
B:-----3------3------3-------3--------3----------3----------3-----|
G:---0------0------0-------0--------0---------0----------0--------|
D:----------------------------------------------------------------|
A:-3------2-----0--------2--------3--------2----------0----------2|
E:----------------------------------------------------------------|

e:-------3------------3--------3----------------3--------------0--|
B:-----3------3-----3--------3---------3------3------3-------0----|
G:---0------0-----0--------0---------0------0------0-------0------|
D:----------------------------------------------------------------|
A:-3------2-----0--------2---------3------2------0-------2--------|
E:----------------------------------------------------------------|


.:Chorus:.
C              Em     D1   Em
Everything you say is so kind
C    Em                   D1       Em
God Damn I cant get you outta my mind
     C        Em D1 Em
This feelings so crazy
            C       Em    (tap guitar x5)
When you whisper to me, that were alright...    
         
                        oo yeah yeah
e:-------3-------------3-------3--------3----------------Tapx4----|
B:-----3------3------3-------3--------3---------3-----------------|
G:---0------0------0-------0--------0---------0-------------------|
D:----------------------------------------------------------------|
A:-3------2-----0--------2--------3--------2---------0------------|
E:----------------------------------------------------------------|

=====================
(**Back to Verse**)
=====================

.:Bridge:.
Baby you know what you mean to me
e:--------------3--------------3----------------3---------------0-|
B:-----3------3------3-------3---------3------3-------3-------0---|
G:---0------0------0-------0---------0------0-------0-------0-----|
D:---------------2-------3------------------------2-------3-------|
A:-2------3-----------------------2------3------------------------|
E:----------------------------------------------------------------|
    Em    C    D    D2    C
for me a rollercoaster girl
    Em    C         D    D2    C
for you, huh, I'll rock your world
      Em           C     D  D2   C
when things dont seem to go as planned
      Em       C      (tap guitar 5X)
Just take my hand...that were alright

                        oo yeah yeah
e:-------3-------------3-------3--------3----------------Tapx4----|
B:-----3------3------3-------3--------3---------3-----------------|
G:---0------0------0-------0--------0---------0-------------------|
D:----------------------------------------------------------------|
A:-3------2-----0--------2--------3--------2---------0------------|
E:----------------------------------------------------------------|


.:Verse 3:.
When your hair break free //
If it were up to me
e:-------------3---------------3-----:slowly fade:-----|
B:-3---3--3---3---3---3--3---3----3--3-3-3-3-3-3-3-----|
G:---0------0-------0------0--------0-0-0-0-0-0-0-0----| (X2)
D:-----------------------------------------------------|
A:-3------2-------0------2--------3--------------------|
E:-----------------------------------------------------|

======================
(**Back to Chorus**)
======================
Tap to rate this tab
# A B C D E F G H I J K L M N O P Q R S T U V W X Y Z